  0
SECTION
  2
HEADER
  9
$ACADVER
  1
AC1014
  9
$INSBASE
 10
0.0
 20
0.0
 30
0.0
  9
$EXTMIN
 10
0.0
 20
0.0
  9
$EXTMAX
 10
12.0
 20
9.0
  9
$LIMMIN
 10
0.0
 20
0.0
  9
$LIMMAX
 10
12.0
 20
9.0
  9
$PDMODE
 70
2
  9
$PDSIZE
 40
0.18
  9
$TILEMODE
 70
0
  9
$HANDLING
 70
1
  9
$HANDSEED
  5
00000000000000FA
  0
ENDSEC
  0
SECTION
  2
TABLES
  0
TABLE
  2
LTYPE
  5
1
100
AcDbSymbolTable
 70
4
  0
LTYPE
  5
2
100
AcDbSymbolTableRecord
100
AcDbLinetypeTableRecord
  2
BYBLOCK
 70
0
  3

 72
65
 73
0
 40
0.0
  0
LTYPE
  5
3
100
AcDbSymbolTableRecord
100
AcDbLinetypeTableRecord
  2
BYLAYER
 70
0
  3

 72
65
 73
0
 40
0.0
  0
LTYPE
  5
4
100
AcDbSymbolTableRecord
100
AcDbLinetypeTableRecord
  2
CONTINUOUS
  3
Solid line
 70
0
 72
65
 73
0
 40
0.0
  0
LTYPE
  5
5
100
AcDbSymbolTableRecord
100
AcDbLinetypeTableRecord
  2
HIDDEN
  3
_ _ _ _ _ _ _ _ _ _ _ _ _ _ _ _ _ _ _ _ _ _ _
 70
0
 72
65
 73
2
 40
0.5
 49
0.25
 74
0
 49
-0.25
 74
0
  0
LTYPE
  5
6
100
AcDbSymbolTableRecord
100
AcDbLinetypeTableRecord
  2
PHANTOM
  3
_____ _ _ _____ _ _ _____ _ _ _____ _ _ ____
 70
0
 72
65
 73
6
 40
2.5
 49
1.25
 74
0
 49
-0.25
 74
0
 49
0.25
 74
0
 49
-0.25
 74
0
 49
0.25
 74
0
 49
-0.25
 74
0
  0
LTYPE
  5
7
100
AcDbSymbolTableRecord
100
AcDbLinetypeTableRecord
  2
CENTER
  3
____ _ ____ _ ____ _ ____ _ ____ _ ____ _ ____
 70
0
 72
65
 73
4
 40
2.0
 49
1.25
 74
0
 49
-0.25
 74
0
 49
0.25
 74
0
 49
-0.25
 74
0
  0
LTYPE
  5
8
100
AcDbSymbolTableRecord
100
AcDbLinetypeTableRecord
  2
DOT
  3
..............................................
 70
0
 72
65
 73
2
 40
0.25
 49
0.0
 74
0
 49
-0.25
 74
0
  0
LTYPE
  5
9
100
AcDbSymbolTableRecord
100
AcDbLinetypeTableRecord
  2
DASHED
  3
__ __ __ __ __ __ __ __ __ __ __ __ __ __ __
 70
0
 72
65
 73
2
 40
0.75
 49
0.5
 74
0
 49
-0.25
 74
0
  0
LTYPE
  5
A
100
AcDbSymbolTableRecord
100
AcDbLinetypeTableRecord
  2
DASHDOT
  3
-- . -- . -- . -- . -- . -- . -- . -- . -- . --
 70
0
 72
65
 73
4
 40
1.0
 49
0.5
 74
0
 49
-0.25
 74
0
 49
0.0
 74
0
 49
-0.25
 74
0
  0
ENDTAB
  0
TABLE
  2
LAYER
  5
B
100
AcDbSymbolTable
 70
7
  0
LAYER
  5
C
100
AcDbSymbolTableRecord
100
AcDbLayerTableRecord
 70
0
  2
0
 62
7
  6
CONTINUOUS
  0
LAYER
  5
D
100
AcDbSymbolTableRecord
100
AcDbLayerTableRecord
 70
0
  2
1
 62
7
  6
CONTINUOUS
  0
LAYER
  5
E
100
AcDbSymbolTableRecord
100
AcDbLayerTableRecord
 70
0
  2
2
 62
7
  6
CONTINUOUS
  0
LAYER
  5
F
100
AcDbSymbolTableRecord
100
AcDbLayerTableRecord
 70
0
  2
3
 62
7
  6
CONTINUOUS
  0
LAYER
  5
10
100
AcDbSymbolTableRecord
100
AcDbLayerTableRecord
 70
0
  2
_ACTIVE1
 62
-7
  6
CONTINUOUS
  0
LAYER
  5
11
100
AcDbSymbolTableRecord
100
AcDbLayerTableRecord
 70
0
  2
ACTIVE_01
 62
7
  6
CONTINUOUS
  0
LAYER
  5
12
100
AcDbSymbolTableRecord
100
AcDbLayerTableRecord
 70
0
  2
DEFPOINTS
 62
-7
  6
CONTINUOUS
  0
ENDTAB
  0
TABLE
  2
STYLE
  5
13
100
AcDbSymbolTable
 70
2
  0
STYLE
  5
14
100
AcDbSymbolTableRecord
100
AcDbTextStyleTableRecord
  2
UGMTXT
 70
0
  3
ugmtxt
  4
bigfont
 40
0.0
 41
1.0
 42
0.2
 50
0.0
 71
0
  0
STYLE
  5
15
100
AcDbSymbolTableRecord
100
AcDbTextStyleTableRecord
  2
UGTXT
 70
0
  3
ugtxt
  4
bigfont
 40
0.0
 41
1.0
 42
0.2
 50
0.0
 71
0
  0
STYLE
  5
16
100
AcDbSymbolTableRecord
100
AcDbTextStyleTableRecord
  2
VUGTXT
 70
4
  3
ugtxt
  4
bigfont
 40
0.0
 41
1.0
 42
0.2
 50
0.0
 71
0
  0
STYLE
  5
17
100
AcDbSymbolTableRecord
100
AcDbTextStyleTableRecord
  2
VUGMTXT
 70
4
  3
ugmtxt
  4
bigfont
 40
0.0
 41
1.0
 42
0.2
 50
0.0
 71
0
  0
ENDTAB
  0
TABLE
  2
VIEW
  5
18
100
AcDbSymbolTable
 70
10
  0
VIEW
  5
19
100
AcDbSymbolTableRecord
100
AcDbViewTableRecord
  2
_ACTIVE1
 70
0
 10
845.10772705078125
 20
296.79673497453058
 11
0.0
 21
0.0
 31
1.0
 12
0.0
 22
0.0
 32
0.0
 40
237.27936978112101
 41
237.27936978112101
 42
1.3759133716825114
 43
0.0
 44
0.0
 50
0.0
 71
16
  0
VIEW
  5
1A
100
AcDbSymbolTableRecord
100
AcDbViewTableRecord
  2
TOP
 70
0
 10
820.26349695804629
 20
304.18952194624984
 11
0.0
 21
0.0
 31
1.0
 12
0.0
 22
0.0
 32
0.0
 40
10.0
 41
10.0
 42
4.1930993607687022
 43
0.0
 44
0.0
 50
0.0
 71
16
  0
VIEW
  5
1B
100
AcDbSymbolTableRecord
100
AcDbViewTableRecord
  2
FRONT
 70
0
 10
820.26349695804629
 20
0.0
 11
0.0
 21
-1.0
 31
0.0
 12
0.0
 22
0.0
 32
0.0
 40
10.0
 41
10.0
 42
4.1930993607687022
 43
0.0
 44
0.0
 50
0.0
 71
16
  0
VIEW
  5
1C
100
AcDbSymbolTableRecord
100
AcDbViewTableRecord
  2
RIGHT
 70
0
 10
304.18952194624984
 20
0.0
 11
1.0
 21
0.0
 31
0.0
 12
0.0
 22
0.0
 32
0.0
 40
10.0
 41
10.0
 42
10.082376901653802
 43
0.0
 44
0.0
 50
0.0
 71
16
  0
VIEW
  5
1D
100
AcDbSymbolTableRecord
100
AcDbViewTableRecord
  2
BACK
 70
0
 10
-820.26349695804629
 20
0.0
 11
0.0
 21
1.0
 31
0.0
 12
0.0
 22
0.0
 32
0.0
 40
10.0
 41
10.0
 42
4.1930993607687022
 43
0.0
 44
0.0
 50
0.0
 71
16
  0
VIEW
  5
1E
100
AcDbSymbolTableRecord
100
AcDbViewTableRecord
  2
BOTTOM
 70
0
 10
820.26349695804629
 20
-304.18952194624984
 11
0.0
 21
0.0
 31
-1.0
 12
0.0
 22
0.0
 32
0.0
 40
10.0
 41
10.0
 42
4.1930993607687022
 43
0.0
 44
0.0
 50
180.0
 71
16
  0
VIEW
  5
1F
100
AcDbSymbolTableRecord
100
AcDbViewTableRecord
  2
LEFT
 70
0
 10
-304.18952194624984
 20
0.0
 11
-1.0
 21
0.0
 31
0.0
 12
0.0
 22
0.0
 32
0.0
 40
10.0
 41
10.0
 42
10.082376901653802
 43
0.0
 44
0.0
 50
0.0
 71
16
  0
VIEW
  5
20
100
AcDbSymbolTableRecord
100
AcDbViewTableRecord
  2
TFR-ISO
 70
0
 10
773.96373113056404
 20
-209.74246395262782
 11
0.5773502691896258
 21
-0.5773502691896258
 31
0.5773502691896258
 12
0.0
 22
0.0
 32
0.0
 40
16.329931618554522
 41
14.142135623730951
 42
5.160857666160747
 43
0.0
 44
0.0
 50
0.0
 71
16
  0
VIEW
  5
21
100
AcDbSymbolTableRecord
100
AcDbViewTableRecord
  2
TFR-TRI
 70
0
 10
732.38186367694425
 20
-166.33023106896835
 11
0.7188730927569433
 21
-0.5850486126764432
 31
0.3754192287502549
 12
0.0
 22
0.0
 32
0.0
 40
14.550037681778086
 41
14.068236615220583
 42
5.9332147443609564
 43
0.0
 44
0.0
 50
0.0
 71
16
  0
VIEW
  5
22
100
AcDbSymbolTableRecord
100
AcDbViewTableRecord
  2
ACTIVE_01
 70
0
 10
820.26349695804629
 20
304.18952194624984
 11
0.0
 21
0.0
 31
1.0
 12
0.0
 22
0.0
 32
0.0
 40
1.0
 41
1.0
 42
4.1930993607687022
 43
0.0
 44
0.0
 50
0.0
 71
16
  0
ENDTAB
  0
TABLE
  2
APPID
  5
23
100
AcDbSymbolTable
 70
1
  0
APPID
  5
24
100
AcDbSymbolTableRecord
100
AcDbRegAppTableRecord
  2
ACAD
 70
0
  0
ENDTAB
  0
TABLE
  2
DIMSTYLE
  5
25
100
AcDbSymbolTable
 70
1
  0
DIMSTYLE
105
26
100
AcDbSymbolTableRecord
100
AcDbDimStyleTableRecord
  2
STANDARD
 70
0
  3

  4

  5

  6

  7

 40
1.0
 41
0.18
 42
0.0625
 43
0.38
 44
0.18
 45
0.0
 46
0.0
 47
0.0
 48
0.0
140
0.18
141
0.09
142
0.0
143
25.399999999999999
144
1.0
145
0.0
146
1.0
147
0.09
 71
0
 72
0
 73
1
 74
1
 75
0
 76
0
 77
0
 78
0
170
0
171
2
172
0
173
0
174
0
175
0
176
0
177
0
178
0
270
2
271
4
272
4
273
2
274
2
340
14
275
0
280
0
281
0
282
0
283
1
284
0
285
0
286
0
287
3
288
0
  0
ENDTAB
  0
TABLE
  2
BLOCK_RECORD
  5
27
100
AcDbSymbolTable
 70
0
  0
BLOCK_RECORD
  5
28
100
AcDbSymbolTableRecord
100
AcDbBlockTableRecord
  2
*MODEL_SPACE
  0
BLOCK_RECORD
  5
29
100
AcDbSymbolTableRecord
100
AcDbBlockTableRecord
  2
*PAPER_SPACE
  0
BLOCK_RECORD
  5
2A
100
AcDbSymbolTableRecord
100
AcDbBlockTableRecord
  2
DOT
  0
ENDTAB
  0
TABLE
  2
UCS
  5
2B
100
AcDbSymbolTable
 70
1
  0
UCS
  5
2C
100
AcDbSymbolTableRecord
100
AcDbUCSTableRecord
  2
UCS01
 70
0
 10
0.0
 20
0.0
 30
0.0
 11
1.0
 21
0.0
 31
0.0
 12
0.0
 22
1.0
 32
0.0
  0
ENDTAB
  0
TABLE
  2
VPORT
  5
2D
100
AcDbSymbolTable
 70
48
  0
VPORT
  5
2E
100
AcDbSymbolTableRecord
100
AcDbViewportTableRecord
  2
L1
 70
0
 10
0.0
 20
0.0
 11
1.0
 21
1.0
 12
820.26349695804629
 22
304.18952194624984
 13
0.0
 23
0.0
 14
1.0
 24
1.0
 15
0.0
 25
0.0
 16
0.0
 26
0.0
 36
1.0
 17
0.0
 27
0.0
 37
0.0
 40
10.0
 41
1.0
 42
4.1930993607687022
 43
0.0
 44
0.0
 50
0.0
 51
0.0
 71
16
 72
100
 73
1
 74
3
 75
0
 76
0
 77
0
 78
0
  0
VPORT
  5
2F
100
AcDbSymbolTableRecord
100
AcDbViewportTableRecord
  2
L2
 70
0
 10
0.0
 20
0.0
 11
0.5
 21
1.0
 12
820.26349695804629
 22
0.0
 13
0.0
 23
0.0
 14
1.0
 24
1.0
 15
0.0
 25
0.0
 16
0.0
 26
-1.0
 36
0.0
 17
0.0
 27
0.0
 37
0.0
 40
10.0
 41
1.0
 42
4.1930993607687022
 43
0.0
 44
0.0
 50
0.0
 51
0.0
 71
16
 72
100
 73
1
 74
3
 75
0
 76
0
 77
0
 78
0
  0
VPORT
  5
30
100
AcDbSymbolTableRecord
100
AcDbViewportTableRecord
  2
L2
 70
0
 10
0.5
 20
0.0
 11
1.0
 21
1.0
 12
304.18952194624984
 22
0.0
 13
0.0
 23
0.0
 14
1.0
 24
1.0
 15
0.0
 25
0.0
 16
1.0
 26
0.0
 36
0.0
 17
0.0
 27
0.0
 37
0.0
 40
10.0
 41
1.0
 42
10.082376901653802
 43
0.0
 44
0.0
 50
0.0
 51
0.0
 71
16
 72
100
 73
1
 74
3
 75
0
 76
0
 77
0
 78
0
  0
VPORT
  5
31
100
AcDbSymbolTableRecord
100
AcDbViewportTableRecord
  2
L3
 70
0
 10
0.0
 20
0.5
 11
1.0
 21
1.0
 12
820.26349695804629
 22
304.18952194624984
 13
0.0
 23
0.0
 14
1.0
 24
1.0
 15
0.0
 25
0.0
 16
0.0
 26
0.0
 36
1.0
 17
0.0
 27
0.0
 37
0.0
 40
10.0
 41
1.0
 42
4.1930993607687022
 43
0.0
 44
0.0
 50
0.0
 51
0.0
 71
16
 72
100
 73
1
 74
3
 75
0
 76
0
 77
0
 78
0
  0
VPORT
  5
32
100
AcDbSymbolTableRecord
100
AcDbViewportTableRecord
  2
L3
 70
0
 10
0.0
 20
0.0
 11
1.0
 21
0.5
 12
820.26349695804629
 22
0.0
 13
0.0
 23
0.0
 14
1.0
 24
1.0
 15
0.0
 25
0.0
 16
0.0
 26
-1.0
 36
0.0
 17
0.0
 27
0.0
 37
0.0
 40
10.0
 41
1.0
 42
4.1930993607687022
 43
0.0
 44
0.0
 50
0.0
 51
0.0
 71
16
 72
100
 73
1
 74
3
 75
0
 76
0
 77
0
 78
0
  0
VPORT
  5
33
100
AcDbSymbolTableRecord
100
AcDbViewportTableRecord
  2
L4
 70
0
 10
0.0
 20
0.5
 11
0.5
 21
1.0
 12
820.26349695804629
 22
304.18952194624984
 13
0.0
 23
0.0
 14
1.0
 24
1.0
 15
0.0
 25
0.0
 16
0.0
 26
0.0
 36
1.0
 17
0.0
 27
0.0
 37
0.0
 40
10.0
 41
1.0
 42
4.1930993607687022
 43
0.0
 44
0.0
 50
0.0
 51
0.0
 71
16
 72
100
 73
1
 74
3
 75
0
 76
0
 77
0
 78
0
  0
VPORT
  5
34
100
AcDbSymbolTableRecord
100
AcDbViewportTableRecord
  2
L4
 70
0
 10
0.0
 20
0.0
 11
0.5
 21
0.5
 12
820.26349695804629
 22
0.0
 13
0.0
 23
0.0
 14
1.0
 24
1.0
 15
0.0
 25
0.0
 16
0.0
 26
-1.0
 36
0.0
 17
0.0
 27
0.0
 37
0.0
 40
10.0
 41
1.0
 42
4.1930993607687022
 43
0.0
 44
0.0
 50
0.0
 51
0.0
 71
16
 72
100
 73
1
 74
3
 75
0
 76
0
 77
0
 78
0
  0
VPORT
  5
35
100
AcDbSymbolTableRecord
100
AcDbViewportTableRecord
  2
L4
 70
0
 10
0.5
 20
0.0
 11
1.0
 21
0.5
 12
304.18952194624984
 22
0.0
 13
0.0
 23
0.0
 14
1.0
 24
1.0
 15
0.0
 25
0.0
 16
1.0
 26
0.0
 36
0.0
 17
0.0
 27
0.0
 37
0.0
 40
10.0
 41
1.0
 42
10.082376901653802
 43
0.0
 44
0.0
 50
0.0
 51
0.0
 71
16
 72
100
 73
1
 74
3
 75
0
 76
0
 77
0
 78
0
  0
VPORT
  5
36
100
AcDbSymbolTableRecord
100
AcDbViewportTableRecord
  2
L4
 70
0
 10
0.5
 20
0.5
 11
1.0
 21
1.0
 12
773.96373113056404
 22
-209.74246395262782
 13
0.0
 23
0.0
 14
1.0
 24
1.0
 15
0.0
 25
0.0
 16
0.5773502691896258
 26
-0.5773502691896258
 36
0.5773502691896258
 17
0.0
 27
0.0
 37
0.0
 40
16.329931618554522
 41
0.8660254037844386
 42
5.160857666160747
 43
0.0
 44
0.0
 50
0.0
 51
0.0
 71
16
 72
100
 73
1
 74
3
 75
0
 76
0
 77
0
 78
0
  0
VPORT
  5
37
100
AcDbSymbolTableRecord
100
AcDbViewportTableRecord
  2
L6
 70
0
 10
0.0
 20
0.5
 11
0.3333333333333334
 21
1.0
 12
732.38186367694425
 22
-166.33023106896835
 13
0.0
 23
0.0
 14
1.0
 24
1.0
 15
0.0
 25
0.0
 16
0.7188730927569433
 26
-0.5850486126764432
 36
0.3754192287502549
 17
0.0
 27
0.0
 37
0.0
 40
14.550037681778086
 41
0.9668866103927076
 42
5.9332147443609564
 43
0.0
 44
0.0
 50
0.0
 51
0.0
 71
16
 72
100
 73
1
 74
3
 75
0
 76
0
 77
0
 78
0
  0
VPORT
  5
38
100
AcDbSymbolTableRecord
100
AcDbViewportTableRecord
  2
L6
 70
0
 10
0.0
 20
0.0
 11
0.3333333333333334
 21
0.5
 12
-304.18952194624984
 22
0.0
 13
0.0
 23
0.0
 14
1.0
 24
1.0
 15
0.0
 25
0.0
 16
-1.0
 26
0.0
 36
0.0
 17
0.0
 27
0.0
 37
0.0
 40
10.0
 41
1.0
 42
10.082376901653802
 43
0.0
 44
0.0
 50
0.0
 51
0.0
 71
16
 72
100
 73
1
 74
3
 75
0
 76
0
 77
0
 78
0
  0
VPORT
  5
39
100
AcDbSymbolTableRecord
100
AcDbViewportTableRecord
  2
L6
 70
0
 10
0.3333333333333334
 20
0.5
 11
0.6666666666666666
 21
1.0
 12
820.26349695804629
 22
304.18952194624984
 13
0.0
 23
0.0
 14
1.0
 24
1.0
 15
0.0
 25
0.0
 16
0.0
 26
0.0
 36
1.0
 17
0.0
 27
0.0
 37
0.0
 40
10.0
 41
1.0
 42
4.1930993607687022
 43
0.0
 44
0.0
 50
0.0
 51
0.0
 71
16
 72
100
 73
1
 74
3
 75
0
 76
0
 77
0
 78
0
  0
VPORT
  5
3A
100
AcDbSymbolTableRecord
100
AcDbViewportTableRecord
  2
L6
 70
0
 10
0.3333333333333334
 20
0.0
 11
0.6666666666666666
 21
0.5
 12
820.26349695804629
 22
0.0
 13
0.0
 23
0.0
 14
1.0
 24
1.0
 15
0.0
 25
0.0
 16
0.0
 26
-1.0
 36
0.0
 17
0.0
 27
0.0
 37
0.0
 40
10.0
 41
1.0
 42
4.1930993607687022
 43
0.0
 44
0.0
 50
0.0
 51
0.0
 71
16
 72
100
 73
1
 74
3
 75
0
 76
0
 77
0
 78
0
  0
VPORT
  5
3B
100
AcDbSymbolTableRecord
100
AcDbViewportTableRecord
  2
L6
 70
0
 10
0.6666666666666666
 20
0.5
 11
1.0
 21
1.0
 12
773.96373113056404
 22
-209.74246395262782
 13
0.0
 23
0.0
 14
1.0
 24
1.0
 15
0.0
 25
0.0
 16
0.5773502691896258
 26
-0.5773502691896258
 36
0.5773502691896258
 17
0.0
 27
0.0
 37
0.0
 40
16.329931618554522
 41
0.8660254037844386
 42
5.160857666160747
 43
0.0
 44
0.0
 50
0.0
 51
0.0
 71
16
 72
100
 73
1
 74
3
 75
0
 76
0
 77
0
 78
0
  0
VPORT
  5
3C
100
AcDbSymbolTableRecord
100
AcDbViewportTableRecord
  2
L6
 70
0
 10
0.6666666666666666
 20
0.0
 11
1.0
 21
0.5
 12
304.18952194624984
 22
0.0
 13
0.0
 23
0.0
 14
1.0
 24
1.0
 15
0.0
 25
0.0
 16
1.0
 26
0.0
 36
0.0
 17
0.0
 27
0.0
 37
0.0
 40
10.0
 41
1.0
 42
10.082376901653802
 43
0.0
 44
0.0
 50
0.0
 51
0.0
 71
16
 72
100
 73
1
 74
3
 75
0
 76
0
 77
0
 78
0
  0
VPORT
  5
3D
100
AcDbSymbolTableRecord
100
AcDbViewportTableRecord
  2
_ACTIVE
 70
0
 10
0.0
 20
0.0
 11
1.0
 21
1.0
 12
845.10772705078125
 22
296.79673497453058
 13
0.0
 23
0.0
 14
1.0
 24
1.0
 15
0.0
 25
0.0
 16
0.0
 26
0.0
 36
1.0
 17
0.0
 27
0.0
 37
0.0
 40
237.27936978112101
 41
1.0
 42
1.3759133716825114
 43
0.0
 44
0.0
 50
0.0
 51
0.0
 71
16
 72
100
 73
1
 74
3
 75
0
 76
0
 77
0
 78
0
  0
VPORT
  5
3E
100
AcDbSymbolTableRecord
100
AcDbViewportTableRecord
  2
_ACTIVE_0
 70
0
 10
0.0
 20
0.0
 11
1.0
 21
1.0
 12
820.26349695804629
 22
304.18952194624984
 13
0.0
 23
0.0
 14
1.0
 24
1.0
 15
0.0
 25
0.0
 16
0.0
 26
0.0
 36
1.0
 17
0.0
 27
0.0
 37
0.0
 40
1.0
 41
1.0
 42
4.1930993607687022
 43
0.0
 44
0.0
 50
0.0
 51
0.0
 71
16
 72
100
 73
1
 74
3
 75
0
 76
0
 77
0
 78
0
  0
VPORT
  5
3F
100
AcDbSymbolTableRecord
100
AcDbViewportTableRecord
  2
*ACTIVE
 70
0
 10
0.0
 20
0.0
 11
1.0
 21
1.0
 12
820.26349695804629
 22
304.18952194624984
 13
0.0
 23
0.0
 14
1.0
 24
1.0
 15
0.0
 25
0.0
 16
0.0
 26
0.0
 36
1.0
 17
0.0
 27
0.0
 37
0.0
 40
1.0
 41
1.0
 42
4.1930993607687022
 43
0.0
 44
0.0
 50
0.0
 51
0.0
 71
16
 72
100
 73
1
 74
3
 75
0
 76
0
 77
0
 78
0
  0
ENDTAB
  0
ENDSEC
  0
SECTION
  2
BLOCKS
  0
BLOCK
  5
40
100
AcDbEntity
  8
0
100
AcDbBlockBegin
  2
*MODEL_SPACE
 70
0
 10
0.0
 20
0.0
 30
0.0
  3
*MODEL_SPACE
  1

  0
ENDBLK
  5
41
100
AcDbEntity
  8
0
100
AcDbBlockEnd
  0
BLOCK
  5
42
100
AcDbEntity
  8
0
100
AcDbBlockBegin
  2
*PAPER_SPACE
 70
0
 10
0.0
 20
0.0
 30
0.0
  3
*PAPER_SPACE
  1

  0
ENDBLK
  5
43
100
AcDbEntity
  8
0
100
AcDbBlockEnd
  0
BLOCK
  5
44
100
AcDbEntity
  8
0
100
AcDbBlockBegin
  2
DOT
 70
0
 10
0.0
 20
0.0
 30
0.0
  0
POLYLINE
  5
45
100
AcDbEntity
  8
0
100
AcDb2dPolyline
  6
BYBLOCK
 62
0
 66
1
 10
0.0
 20
0.0
 30
0.0
 70
1
 40
0.5
 41
0.5
  0
VERTEX
  5
46
100
AcDbEntity
  8
0
100
AcDbVertex
100
AcDb2dVertex
  6
BYBLOCK
 62
0
 10
-0.25
 20
0.0
 30
0.0
 42
1.0
  0
VERTEX
  5
47
100
AcDbEntity
  8
0
100
AcDbVertex
100
AcDb2dVertex
  6
BYBLOCK
 62
0
 10
0.25
 20
0.0
 30
0.0
 42
1.0
  0
SEQEND
  5
48
100
AcDbEntity
  8
0
  6
BYBLOCK
 62
0
  0
ENDBLK
  5
49
100
AcDbEntity
  8
0
100
AcDbBlockEnd
  0
ENDSEC
  0
SECTION
  2
ENTITIES
  0
LINE
  5
4A
100
AcDbEntity
100
AcDbLine
 10
809.0369427547173
 20
280.40650839168069
 30
0.0
 11
908.01155281782303
 21
280.40650839168069
 31
0.0
 62
5
  6
CONTINUOUS
  8
1
 60
0
  0
LINE
  5
4B
100
AcDbEntity
100
AcDbLine
 10
779.40018383761537
 20
280.40650839168069
 30
0.0
 11
783.37078768092908
 21
280.40650839168057
 31
0.0
 62
5
  6
CONTINUOUS
  8
1
 60
0
  0
LINE
  5
4C
100
AcDbEntity
100
AcDbLine
 10
826.87866112912104
 20
278.48650839168067
 30
0.0
 11
908.01155281782303
 21
278.48650839168067
 31
0.0
 62
5
  6
CONTINUOUS
  8
1
 60
0
  0
LINE
  5
4D
100
AcDbEntity
100
AcDbLine
 10
827.0101995851212
 20
278.60170839168069
 30
0.0
 11
832.24540216182334
 21
278.60170839168069
 31
0.0
 62
5
  6
CONTINUOUS
  8
1
 60
0
  0
LINE
  5
4E
100
AcDbEntity
100
AcDbLine
 10
826.87866112912104
 20
280.40650839168069
 30
0.0
 11
826.87866112912104
 21
278.48650839168067
 31
0.0
 62
5
  6
CONTINUOUS
  8
1
 60
0
  0
LINE
  5
4F
100
AcDbEntity
100
AcDbLine
 10
827.0101995851212
 20
280.29130839168067
 30
0.0
 11
827.0101995851212
 21
278.60170839168069
 31
0.0
 62
5
  6
CONTINUOUS
  8
1
 60
0
  0
LINE
  5
50
100
AcDbEntity
100
AcDbLine
 10
832.37694061782327
 20
280.40650839168069
 30
0.0
 11
832.37694061782327
 21
278.48650839168067
 31
0.0
 62
5
  6
CONTINUOUS
  8
1
 60
0
  0
LINE
  5
51
100
AcDbEntity
100
AcDbLine
 10
832.24540216182334
 20
280.29130839168067
 30
0.0
 11
832.24540216182334
 21
278.60170839168069
 31
0.0
 62
5
  6
CONTINUOUS
  8
1
 60
0
  0
LINE
  5
52
100
AcDbEntity
100
AcDbLine
 10
854.01916741740354
 20
291.20650839168059
 30
0.0
 11
854.01916741740354
 21
318.01462628267501
 31
0.0
 62
1
  6
CONTINUOUS
  8
1
 60
0
  0
LINE
  5
53
100
AcDbEntity
100
AcDbLine
 10
854.29320586740357
 20
291.20650839168059
 30
0.0
 11
854.29320586740357
 21
318.01462628267501
 31
0.0
 62
1
  6
CONTINUOUS
  8
1
 60
0
  0
LINE
  5
54
100
AcDbEntity
100
AcDbLine
 10
846.34609081740462
 20
308.05527993681534
 30
0.0
 11
827.25569767267973
 21
308.05527993681534
 31
0.0
 62
1
  6
CONTINUOUS
  8
1
 60
0
  0
LINE
  5
55
100
AcDbEntity
100
AcDbLine
 10
846.34609081740462
 20
307.09527993681536
 30
0.0
 11
827.25569767267973
 21
307.09527993681536
 31
0.0
 62
1
  6
CONTINUOUS
  8
1
 60
0
  0
LINE
  5
56
100
AcDbEntity
100
AcDbLine
 10
849.6345522174048
 20
310.93527993681533
 30
0.0
 11
849.6345522174048
 21
318.01462628267501
 31
0.0
 62
1
  6
CONTINUOUS
  8
1
 60
0
  0
LINE
  5
57
100
AcDbEntity
100
AcDbLine
 10
850.73070601740483
 20
310.93527993681533
 30
0.0
 11
850.73070601740483
 21
318.01462628267501
 31
0.0
 62
1
  6
CONTINUOUS
  8
1
 60
0
  0
LINE
  5
58
100
AcDbEntity
100
AcDbLine
 10
814.55763061740345
 20
291.2065083916807
 30
0.0
 11
814.55763061740481
 21
298.98870905925679
 31
0.0
 62
1
  6
CONTINUOUS
  8
1
 60
0
  0
LINE
  5
59
100
AcDbEntity
100
AcDbLine
 10
814.28359216740353
 20
291.2065083916807
 30
0.0
 11
814.28359216740478
 21
298.98870905925679
 31
0.0
 62
1
  6
CONTINUOUS
  8
1
 60
0
  0
LINE
  5
5A
100
AcDbEntity
100
AcDbLine
 10
847.4422446174035
 20
285.4465083916806
 30
0.0
 11
821.13455341740359
 21
285.4465083916806
 31
0.0
 62
1
  6
CONTINUOUS
  8
1
 60
0
  0
LINE
  5
5B
100
AcDbEntity
100
AcDbLine
 10
847.4422446174035
 20
285.20650839168059
 30
0.0
 11
821.13455341740359
 21
285.2065083916807
 31
0.0
 62
1
  6
CONTINUOUS
  8
1
 60
0
  0
LINE
  5
5C
100
AcDbEntity
100
AcDbLine
 10
868.55001601782328
 20
307.08558951415534
 30
0.0
 11
868.55001601782328
 21
280.40650839168069
 31
0.0
 62
5
  6
CONTINUOUS
  8
1
 60
0
  0
LINE
  5
5D
100
AcDbEntity
100
AcDbLine
 10
881.70386161782324
 20
295.56558951415519
 30
0.0
 11
881.70386161782324
 21
280.40650839168069
 31
0.0
 62
5
  6
CONTINUOUS
  8
1
 60
0
  0
LINE
  5
5E
100
AcDbEntity
100
AcDbLine
 10
843.01569063148077
 20
329.57653998609607
 30
0.0
 11
819.96017024839944
 21
328.87142738939895
 31
0.0
 62
5
  6
CONTINUOUS
  8
2
 60
0
  0
LINE
  5
5F
100
AcDbEntity
100
AcDbLine
 10
753.60610462307204
 20
293.21352286858036
 30
0.0
 11
753.60610462307204
 21
288.53423833055155
 31
0.0
 62
5
  6
CONTINUOUS
  8
1
 60
0
  0
LINE
  5
60
100
AcDbEntity
100
AcDbLine
 10
908.01155281782303
 20
280.40650839168069
 30
0.0
 11
908.01155281782326
 21
278.48650839168067
 31
0.0
 62
5
  6
CONTINUOUS
  8
1
 60
0
  0
LINE
  5
61
100
AcDbEntity
100
AcDbLine
 10
757.66852361534086
 20
282.3265083916807
 30
0.0
 11
866.9057853178233
 21
282.32650839168059
 31
0.0
 62
3
  6
HIDDEN
  8
3
 60
0
  0
LINE
  5
62
100
AcDbEntity
100
AcDbLine
 10
757.66852361534086
 20
282.80650839168067
 30
0.0
 11
866.90578531782342
 21
282.80650839168078
 31
0.0
 62
3
  6
HIDDEN
  8
3
 60
0
  0
LINE
  5
63
100
AcDbEntity
100
AcDbLine
 10
788.13175046782339
 20
305.36650839168055
 30
0.0
 11
804.02598056782335
 21
305.36650839168055
 31
0.0
 62
3
  6
HIDDEN
  8
3
 60
0
  0
LINE
  5
64
100
AcDbEntity
100
AcDbLine
 10
788.13175046782339
 20
305.84650839168057
 30
0.0
 11
803.47790366782351
 21
305.84650839168057
 31
0.0
 62
3
  6
HIDDEN
  8
3
 60
0
  0
LINE
  5
65
100
AcDbEntity
100
AcDbLine
 10
784.29521216782325
 20
302.00650839168071
 30
0.0
 11
784.29521216782325
 21
282.80650839168084
 31
0.0
 62
3
  6
HIDDEN
  8
3
 60
0
  0
LINE
  5
66
100
AcDbEntity
100
AcDbLine
 10
784.56925061782329
 20
302.00650839168071
 30
0.0
 11
784.56925061782329
 21
282.80650839168078
 31
0.0
 62
3
  6
HIDDEN
  8
3
 60
0
  0
LINE
  5
67
100
AcDbEntity
100
AcDbLine
 10
785.66540441782331
 20
302.00650839168071
 30
0.0
 11
785.66540441782331
 21
282.80650839168078
 31
0.0
 62
3
  6
HIDDEN
  8
3
 60
0
  0
LINE
  5
68
100
AcDbEntity
100
AcDbLine
 10
785.93944286782335
 20
304.88650839168054
 30
0.0
 11
785.93944286782335
 21
282.80650839168078
 31
0.0
 62
3
  6
HIDDEN
  8
3
 60
0
  0
LINE
  5
69
100
AcDbEntity
100
AcDbLine
 10
768.76906063218087
 20
302.48650839168067
 30
0.0
 11
768.76906063218087
 21
311.60650839168056
 31
0.0
 62
3
  6
HIDDEN
  8
3
 60
0
  0
LINE
  5
6A
100
AcDbEntity
100
AcDbLine
 10
769.31713753218094
 20
302.48650839168067
 30
0.0
 11
769.31713753218082
 21
311.60650839168056
 31
0.0
 62
3
  6
HIDDEN
  8
3
 60
0
  0
LINE
  5
6B
100
AcDbEntity
100
AcDbLine
 10
788.13175046782339
 20
304.64650839168053
 30
0.0
 11
788.13175046782339
 21
321.38974147084338
 31
0.0
 62
3
  6
HIDDEN
  8
3
 60
0
  0
LINE
  5
6C
100
AcDbEntity
100
AcDbLine
 10
787.58367356782333
 20
304.88650839168054
 30
0.0
 11
787.58367356782333
 21
321.19480656793559
 31
0.0
 62
3
  6
HIDDEN
  8
3
 60
0
  0
LINE
  5
6D
100
AcDbEntity
100
AcDbLine
 10
785.93944286782335
 20
304.88650839168054
 30
0.0
 11
788.13175046782339
 21
304.88650839168054
 31
0.0
 62
3
  6
HIDDEN
  8
3
 60
0
  0
LINE
  5
6E
100
AcDbEntity
100
AcDbLine
 10
785.93944286782335
 20
304.64650839168053
 30
0.0
 11
788.13175046782339
 21
304.64650839168053
 31
0.0
 62
3
  6
HIDDEN
  8
3
 60
0
  0
LINE
  5
6F
100
AcDbEntity
100
AcDbLine
 10
768.76906063218075
 20
311.1265083916806
 30
0.0
 11
785.93944286782335
 21
311.12650839168072
 31
0.0
 62
3
  6
HIDDEN
  8
3
 60
0
  0
LINE
  5
70
100
AcDbEntity
100
AcDbLine
 10
784.56925061782329
 20
301.04650839168056
 30
0.0
 11
785.66540441782331
 21
302.00650839168071
 31
0.0
 62
3
  6
HIDDEN
  8
3
 60
0
  0
LINE
  5
71
100
AcDbEntity
100
AcDbLine
 10
785.66540441782331
 20
301.04650839168056
 30
0.0
 11
784.56925061782329
 21
302.00650839168071
 31
0.0
 62
3
  6
HIDDEN
  8
3
 60
0
  0
LINE
  5
72
100
AcDbEntity
100
AcDbLine
 10
784.56925061782329
 20
301.04650839168056
 30
0.0
 11
785.66540441782331
 21
301.04650839168056
 31
0.0
 62
3
  6
HIDDEN
  8
3
 60
0
  0
LINE
  5
73
100
AcDbEntity
100
AcDbLine
 10
786.4875197678233
 20
305.84650839168057
 30
0.0
 11
787.58367356782333
 21
304.88650839168054
 31
0.0
 62
3
  6
HIDDEN
  8
3
 60
0
  0
LINE
  5
74
100
AcDbEntity
100
AcDbLine
 10
786.4875197678233
 20
304.88650839168054
 30
0.0
 11
787.58367356782333
 21
305.84650839168057
 31
0.0
 62
3
  6
HIDDEN
  8
3
 60
0
  0
LINE
  5
75
100
AcDbEntity
100
AcDbLine
 10
786.4875197678233
 20
304.88650839168054
 30
0.0
 11
786.4875197678233
 21
305.84650839168057
 31
0.0
 62
3
  6
HIDDEN
  8
3
 60
0
  0
LINE
  5
76
100
AcDbEntity
100
AcDbLine
 10
768.76906063218087
 20
311.60650839168045
 30
0.0
 11
785.93944286782346
 21
311.60650839168068
 31
0.0
 62
3
  6
HIDDEN
  8
3
 60
0
  0
LINE
  5
77
100
AcDbEntity
100
AcDbLine
 10
803.4779036678234
 20
305.36650839168055
 30
0.0
 11
803.47790366782306
 21
325.53997837414937
 31
0.0
 62
3
  6
HIDDEN
  8
3
 60
0
  0
LINE
  5
78
100
AcDbEntity
100
AcDbLine
 10
804.02598056782335
 20
305.36650839168055
 30
0.0
 11
804.02598056782301
 21
325.64399870514393
 31
0.0
 62
3
  6
HIDDEN
  8
3
 60
0
  0
LINE
  5
79
100
AcDbEntity
100
AcDbLine
 10
785.93944286782335
 20
286.64650839168087
 30
0.0
 11
866.76876609282317
 21
286.64650839168087
 31
0.0
 62
3
  6
HIDDEN
  8
3
 60
0
  0
LINE
  5
7A
100
AcDbEntity
100
AcDbLine
 10
755.25033532307214
 20
293.21352286858036
 30
0.0
 11
755.25033532307214
 21
288.59531135833788
 31
0.0
 62
3
  6
HIDDEN
  8
3
 60
0
  0
LINE
  5
7B
100
AcDbEntity
100
AcDbLine
 10
763.54996280204307
 20
280.40650839168069
 30
0.0
 11
779.40018383761537
 21
280.40650839168069
 31
0.0
 62
5
  6
CONTINUOUS
  8
1
 60
0
  0
LINE
  5
7C
100
AcDbEntity
100
AcDbLine
 10
763.54996280204307
 20
282.3265083916807
 30
0.0
 11
763.54996280204307
 21
280.40650839168069
 31
0.0
 62
3
  6
HIDDEN
  8
3
 60
0
  0
LINE
  5
7D
100
AcDbEntity
100
AcDbLine
 10
787.58367356782333
 20
306.32650839168065
 30
0.0
 11
786.4875197678233
 21
307.28650839168068
 31
0.0
 62
3
  6
HIDDEN
  8
3
 60
0
  0
LINE
  5
7E
100
AcDbEntity
100
AcDbLine
 10
786.4875197678233
 20
306.32650839168065
 30
0.0
 11
787.58367356782333
 21
307.28650839168068
 31
0.0
 62
3
  6
HIDDEN
  8
3
 60
0
  0
LINE
  5
7F
100
AcDbEntity
100
AcDbLine
 10
786.4875197678233
 20
306.32650839168065
 30
0.0
 11
786.48751976782376
 21
320.79460312829286
 31
0.0
 62
3
  6
HIDDEN
  8
3
 60
0
  0
LINE
  5
80
100
AcDbEntity
100
AcDbLine
 10
786.4875197678233
 20
307.28650839168068
 30
0.0
 11
787.58367356782333
 21
307.28650839168068
 31
0.0
 62
3
  6
HIDDEN
  8
3
 60
0
  0
LINE
  5
81
100
AcDbEntity
100
AcDbLine
 10
843.07307345537367
 20
328.13741719518862
 30
0.0
 11
820.01755307229246
 21
327.4323045984915
 31
0.0
 62
3
  6
HIDDEN
  8
3
 60
0
  0
LINE
  5
82
100
AcDbEntity
100
AcDbLine
 10
866.9057853178233
 20
307.08558951415534
 30
0.0
 11
866.9057853178233
 21
280.40650839168069
 31
0.0
 62
3
  6
HIDDEN
  8
3
 60
0
  0
LINE
  5
83
100
AcDbEntity
100
AcDbLine
 10
753.60610462307056
 20
293.21352286858036
 30
0.0
 11
753.60610462307125
 21
288.53423833055155
 31
0.0
 62
2
  6
CONTINUOUS
  8
1
 60
0
  0
LINE
  5
84
100
AcDbEntity
100
AcDbLine
 10
755.25033532306998
 20
293.21352286857984
 30
0.0
 11
755.25033532307066
 21
288.59531135833811
 31
0.0
 62
2
  6
CONTINUOUS
  8
1
 60
0
  0
LINE
  5
85
100
AcDbEntity
100
AcDbLine
 10
757.66852361534018
 20
283.97800693645388
 30
0.0
 11
757.66852361534006
 21
282.08814731234241
 31
0.0
 62
2
  6
CONTINUOUS
  8
1
 60
0
  0
LINE
  5
86
100
AcDbEntity
100
AcDbLine
 10
790.42636788095683
 20
322.16912515442641
 30
0.0
 11
790.42636788095786
 21
323.70437633790715
 31
0.0
 62
2
  6
CONTINUOUS
  8
1
 60
0
  0
LINE
  5
87
100
AcDbEntity
100
AcDbLine
 10
757.66852361534086
 20
302.48650839168067
 30
0.0
 11
757.66852361534086
 21
282.3265083916807
 31
0.0
 62
3
  6
HIDDEN
  8
3
 60
0
  0
LINE
  5
88
100
AcDbEntity
100
AcDbLine
 10
783.37078768092908
 20
280.40650839168069
 30
0.0
 11
809.0369427547173
 21
280.40650839168069
 31
0.0
 62
3
  6
HIDDEN
  8
3
 60
0
  0
LINE
  5
89
100
AcDbEntity
100
AcDbLine
 10
758.21660051534036
 20
302.48650839168056
 30
0.0
 11
758.21660051534036
 21
282.80650839168067
 31
0.0
 62
3
  6
HIDDEN
  8
3
 60
0
  0
LINE
  5
8A
100
AcDbEntity
100
AcDbLine
 10
757.66852361534029
 20
301.52650839168058
 30
0.0
 11
758.21660051534036
 21
301.52650839168058
 31
0.0
 62
3
  6
HIDDEN
  8
3
 60
0
  0
LINE
  5
8B
100
AcDbEntity
100
AcDbLine
 10
779.50665352514989
 20
317.36650839168061
 30
0.0
 11
785.93944286782335
 21
317.36650839168067
 31
0.0
 62
3
  6
HIDDEN
  8
3
 60
0
  0
LINE
  5
8C
100
AcDbEntity
100
AcDbLine
 10
779.50665352514989
 20
317.36650839168055
 30
0.0
 11
779.50665352514989
 21
311.60650839168056
 31
0.0
 62
3
  6
HIDDEN
  8
3
 60
0
  0
LINE
  5
8D
100
AcDbEntity
100
AcDbLine
 10
779.50665352514989
 20
316.88650839168065
 30
0.0
 11
785.93944286782335
 21
316.88650839168071
 31
0.0
 62
3
  6
HIDDEN
  8
3
 60
0
  0
LINE
  5
8E
100
AcDbEntity
100
AcDbLine
 10
780.05473042514984
 20
317.36650839168055
 30
0.0
 11
780.05473042514984
 21
311.60650839168056
 31
0.0
 62
3
  6
HIDDEN
  8
3
 60
0
  0
LINE
  5
8F
100
AcDbEntity
100
AcDbLine
 10
870.19424671782315
 20
289.52650839168069
 30
0.0
 11
870.19424671782315
 21
282.80650839168067
 31
0.0
 62
5
  6
CONTINUOUS
  8
1
 60
0
  0
LINE
  5
90
100
AcDbEntity
100
AcDbLine
 10
880.05963091782326
 20
282.80650839168067
 30
0.0
 11
880.05963091782326
 21
289.52650839168069
 31
0.0
 62
5
  6
CONTINUOUS
  8
1
 60
0
  0
LINE
  5
91
100
AcDbEntity
100
AcDbLine
 10
871.29040051782329
 20
281.84650839168057
 30
0.0
 11
878.96347711782312
 21
281.84650839168057
 31
0.0
 62
5
  6
CONTINUOUS
  8
1
 60
0
  0
LINE
  5
92
100
AcDbEntity
100
AcDbLine
 10
878.96347711782312
 20
290.48650839168067
 30
0.0
 11
871.29040051782329
 21
290.48650839168067
 31
0.0
 62
5
  6
CONTINUOUS
  8
1
 60
0
  0
LINE
  5
93
100
AcDbEntity
100
AcDbLine
 10
815.94274865302077
 20
293.78714847178452
 30
0.0
 11
815.94274865302077
 21
288.91289374467118
 31
0.0
 62
4
  6
CONTINUOUS
  8
1
 60
0
  0
LINE
  5
94
100
AcDbEntity
100
AcDbLine
 10
813.50562128946399
 20
291.35002110822791
 30
0.0
 11
818.37987601657744
 21
291.35002110822791
 31
0.0
 62
4
  6
CONTINUOUS
  8
1
 60
0
  0
LINE
  5
95
100
AcDbEntity
100
AcDbLine
 10
881.70386161782324
 20
291.92650839168067
 30
0.0
 11
866.9057853178233
 21
291.92650839168067
 31
0.0
 62
3
  6
HIDDEN
  8
3
 60
0
  0
LINE
  5
96
100
AcDbEntity
100
AcDbLine
 10
881.70386161782324
 20
292.40650839168069
 30
0.0
 11
866.9057853178233
 21
292.40650839168069
 31
0.0
 62
3
  6
HIDDEN
  8
3
 60
0
  0
LINE
  5
97
100
AcDbEntity
100
AcDbLine
 10
880.05963091782326
 20
295.56558951415519
 30
0.0
 11
880.05963091782326
 21
280.40650839168069
 31
0.0
 62
3
  6
HIDDEN
  8
3
 60
0
  0
LINE
  5
98
100
AcDbEntity
100
AcDbLine
 10
868.55001601782328
 20
305.76488360737557
 30
0.0
 11
866.9057853178233
 21
305.76488360737557
 31
0.0
 62
3
  6
HIDDEN
  8
3
 60
0
  0
LINE
  5
99
100
AcDbEntity
100
AcDbLine
 10
796.20386521782325
 20
268.16650839168068
 30
0.0
 11
732.51544109826943
 21
268.16650839168068
 31
0.0
 62
5
  6
CONTINUOUS
  8
1
 60
0
  0
LINE
  5
9A
100
AcDbEntity
100
AcDbLine
 10
785.93944286782346
 20
304.64650839168087
 30
0.0
 11
862.28184107968934
 21
304.64650839168087
 31
0.0
 62
3
  6
HIDDEN
  8
3
 60
0
  0
LINE
  5
9B
100
AcDbEntity
100
AcDbLine
 10
757.66852361534086
 20
302.48650839168067
 30
0.0
 11
785.93944286782335
 21
302.48650839168067
 31
0.0
 62
3
  6
CONTINUOUS
  8
1
 60
0
  0
LINE
  5
9C
100
AcDbEntity
100
AcDbLine
 10
757.66852361534086
 20
302.00650839168065
 30
0.0
 11
785.93944286782335
 21
302.00650839168065
 31
0.0
 62
3
  6
CONTINUOUS
  8
1
 60
0
  0
LINE
  5
9D
100
AcDbEntity
100
AcDbLine
 10
785.93944286782335
 20
304.64650839168087
 30
0.0
 11
785.93944286782357
 21
320.5892813735735
 31
0.0
 62
3
  6
HIDDEN
  8
3
 60
0
  0
CIRCLE
  5
9E
100
AcDbEntity
100
AcDbCircle
 10
815.94274865302077
 20
291.35002110822791
 30
0.0
 40
2.437127363556669
210
0.0
220
0.0
230
1.0
 62
4
  6
CONTINUOUS
  8
1
 60
0
  0
ELLIPSE
  5
9F
100
AcDbEntity
100
AcDbEllipse
 10
843.25812128666257
 20
298.98870905925941
 30
0.0
 11
28.700490669256638
 21
0.0
 31
0.0
 40
0.8757895105595218
 41
1.3805251744311973
 42
3.1415926535897931
210
0.0
220
0.0
230
1.0
 62
1
  6
CONTINUOUS
  8
1
 60
0
  0
ELLIPSE
  5
A0
100
AcDbEntity
100
AcDbEllipse
 10
843.25812128666348
 20
298.98870905925668
 30
0.0
 11
28.974529119258662
 21
0.0
 31
0.0
 40
0.8757895105595737
 41
1.3805251744312395
 42
3.1415926535897931
210
0.0
220
0.0
230
1.0
 62
1
  6
CONTINUOUS
  8
1
 60
0
  0
ELLIPSE
  5
A1
100
AcDbEntity
100
AcDbEllipse
 10
843.25812128666303
 20
298.98870905927504
 30
0.0
 11
24.315875469248518
 21
0.0
 31
0.0
 40
0.8757895105591778
 41
1.380525174431138
 42
2.4356906352156997
210
0.0
220
0.0
230
1.0
 62
1
  6
CONTINUOUS
  8
1
 60
0
  0
ELLIPSE
  5
A2
100
AcDbEntity
100
AcDbEllipse
 10
843.25812128666462
 20
298.98870905923849
 30
0.0
 11
25.412029269269539
 21
0.0
 31
0.0
 40
0.8757895105599272
 41
1.3805251744313611
 42
2.4356906352148826
210
0.0
220
0.0
230
1.0
 62
1
  6
CONTINUOUS
  8
1
 60
0
  0
ELLIPSE
  5
A3
100
AcDbEntity
100
AcDbEllipse
 10
827.25569767267962
 20
310.9352799368155
 30
0.0
 11
3.2884613999998487
 21
0.0
 31
0.0
 40
0.8757895105596127
 41
2.4356906352153116
 42
4.7123889803846897
210
0.0
220
0.0
230
1.0
 62
1
  6
CONTINUOUS
  8
1
 60
0
  0
ELLIPSE
  5
A4
100
AcDbEntity
100
AcDbEllipse
 10
827.25569767267882
 20
310.93527993681545
 30
0.0
 11
4.3846151999990477
 21
0.0
 31
0.0
 40
0.8757895105596777
 41
2.4356906352152161
 42
4.7123889803846897
210
0.0
220
0.0
230
1.0
 62
1
  6
CONTINUOUS
  8
1
 60
0
  0
ELLIPSE
  5
A5
100
AcDbEntity
100
AcDbEllipse
 10
847.44224461740635
 20
318.01462628267535
 30
0.0
 11
6.5769227999980435
 21
0.0
 31
0.0
 40
0.8757895105596919
 41
0.0
 42
1.3805251744314624
210
0.0
220
0.0
230
1.0
 62
1
  6
CONTINUOUS
  8
1
 60
0
  0
ELLIPSE
  5
A6
100
AcDbEntity
100
AcDbEllipse
 10
847.44224461740475
 20
318.01462628267461
 30
0.0
 11
6.8509612500000285
 21
0.0
 31
0.0
 40
0.8757895105596262
 41
0.0
 42
1.3805251744312617
210
0.0
220
0.0
230
1.0
 62
1
  6
CONTINUOUS
  8
1
 60
0
  0
ELLIPSE
  5
A7
100
AcDbEntity
100
AcDbEllipse
 10
846.34609081740541
 20
310.93527993681488
 30
0.0
 11
3.2884613999990546
 21
0.0
 31
0.0
 40
0.8757895105596082
 41
4.7123889803846897
 42
6.2831853071795862
210
0.0
220
0.0
230
1.0
 62
1
  6
CONTINUOUS
  8
1
 60
0
  0
ELLIPSE
  5
A8
100
AcDbEntity
100
AcDbEllipse
 10
846.34609081740325
 20
310.93527993681744
 30
0.0
 11
4.3846152000022451
 21
0.0
 31
0.0
 40
0.8757895105597384
 41
4.7123889803846897
 42
6.2831853071795862
210
0.0
220
0.0
230
1.0
 62
1
  6
CONTINUOUS
  8
1
 60
0
  0
ELLIPSE
  5
A9
100
AcDbEntity
100
AcDbEllipse
 10
847.44224461740077
 20
318.01462628267245
 30
0.0
 11
2.1923076000048822
 21
0.0
 31
0.0
 40
0.8757895105595299
 41
0.0
 42
1.3805251744297646
210
0.0
220
0.0
230
1.0
 62
1
  6
CONTINUOUS
  8
1
 60
0
  0
ELLIPSE
  5
AA
100
AcDbEntity
100
AcDbEllipse
 10
847.44224461741067
 20
318.01462628267768
 30
0.0
 11
3.2884613999927739
 21
0.0
 31
0.0
 40
0.8757895105600039
 41
0.0
 42
1.3805251744327796
210
0.0
220
0.0
230
1.0
 62
1
  6
CONTINUOUS
  8
1
 60
0
  0
ELLIPSE
  5
AB
100
AcDbEntity
100
AcDbEllipse
 10
842.86882436994927
 20
307.08558951415461
 30
0.0
 11
25.681191647874389
 21
0.0
 31
0.0
 40
0.8757895105595507
 41
0.0
 42
1.5650774698158272
210
0.0
220
0.0
230
1.0
 62
5
  6
CONTINUOUS
  8
2
 60
0
  0
ELLIPSE
  5
AC
100
AcDbEntity
100
AcDbEllipse
 10
769.09434814048132
 20
299.6898531408284
 30
0.0
 11
13.153845601761116
 21
0.0
 31
0.0
 40
0.8757895105407377
 41
2.2751732871021058
 42
2.5300359008638758
210
0.0
220
0.0
230
1.0
 62
5
  6
CONTINUOUS
  8
1
 60
0
  0
ELLIPSE
  5
AD
100
AcDbEntity
100
AcDbEllipse
 10
769.09434814212307
 20
299.68985313963105
 30
0.0
 11
11.509614903938893
 21
0.0
 31
0.0
 40
0.8757895105307603
 41
2.2751732871335211
 42
2.5300359008439282
210
0.0
220
0.0
230
1.0
 62
3
  6
HIDDEN
  8
3
 60
0
  0
ELLIPSE
  5
AE
100
AcDbEntity
100
AcDbEllipse
 10
842.86882436995154
 20
307.08558951415688
 30
0.0
 11
24.03696094787113
 21
0.0
 31
0.0
 40
0.8757895105595365
 41
0.0
 42
1.5650774698159133
210
0.0
220
0.0
230
1.0
 62
3
  6
HIDDEN
  8
3
 60
0
  0
ELLIPSE
  5
AF
100
AcDbEntity
100
AcDbEllipse
 10
769.09434813742973
 20
299.68985314271441
 30
0.0
 11
11.509614897843356
 21
0.0
 31
0.0
 40
0.8757895105741967
 41
2.2751732870447623
 42
2.5300359008828988
210
0.0
220
0.0
230
1.0
 62
2
  6
CONTINUOUS
  8
1
 60
0
  0
ELLIPSE
  5
B0
100
AcDbEntity
100
AcDbEllipse
 10
769.09434814193423
 20
299.68985313976623
 30
0.0
 11
13.153845603689708
 21
0.0
 31
0.0
 40
0.8757895105357469
 41
2.2751732871232342
 42
2.5300359008485298
210
0.0
220
0.0
230
1.0
 62
2
  6
CONTINUOUS
  8
1
 60
0
  0
ELLIPSE
  5
B1
100
AcDbEntity
100
AcDbEllipse
 10
763.54996280204386
 20
289.13600085430016
 30
0.0
 11
9.9675690989287133
 21
0.0
 31
0.0
 40
0.8757895105596095
 41
3.2105817889515924
 42
4.7123889803846897
210
0.0
220
0.0
230
1.0
 62
5
  6
CONTINUOUS
  8
1
 60
0
  0
ELLIPSE
  5
B2
100
AcDbEntity
100
AcDbEllipse
 10
821.13455341740394
 20
291.2065083916811
 30
0.0
 11
6.5769228000005731
 21
0.0
 31
0.0
 40
0.875789510559573
 41
3.1415926535897931
 42
4.7123889803846897
210
0.0
220
0.0
230
1.0
 62
1
  6
CONTINUOUS
  8
1
 60
0
  0
ELLIPSE
  5
B3
100
AcDbEntity
100
AcDbEllipse
 10
821.13455341740291
 20
291.20650839167996
 30
0.0
 11
6.8509612499990231
 21
0.0
 31
0.0
 40
0.875789510559531
 41
3.1415926535897931
 42
4.7123889803846897
210
0.0
220
0.0
230
1.0
 62
1
  6
CONTINUOUS
  8
1
 60
0
  0
ELLIPSE
  5
B4
100
AcDbEntity
100
AcDbEllipse
 10
847.44224461740316
 20
291.20650839168098
 30
0.0
 11
6.5769228000005731
 21
0.0
 31
0.0
 40
0.8757895105595731
 41
4.7123889803846897
 42
6.2831853071795862
210
0.0
220
0.0
230
1.0
 62
1
  6
CONTINUOUS
  8
1
 60
0
  0
ELLIPSE
  5
B5
100
AcDbEntity
100
AcDbEllipse
 10
847.44224461740293
 20
291.20650839168064
 30
0.0
 11
6.8509612500007373
 21
0.0
 31
0.0
 40
0.8757895105594848
 41
4.7123889803846897
 42
6.2831853071795862
210
0.0
220
0.0
230
1.0
 62
1
  6
CONTINUOUS
  8
1
 60
0
  0
ELLIPSE
  5
B6
100
AcDbEntity
100
AcDbEllipse
 10
763.54996280215926
 20
289.13600085430619
 30
0.0
 11
8.3233383990461949
 21
0.0
 31
0.0
 40
0.8757895105536786
 41
3.2183671207407976
 42
3.9276786859406072
210
0.0
220
0.0
230
1.0
 62
3
  6
HIDDEN
  8
3
 60
0
  0
ELLIPSE
  5
B7
100
AcDbEntity
100
AcDbEllipse
 10
871.2904005178242
 20
282.80650839168175
 30
0.0
 11
1.0961538000013837
 21
0.0
 31
0.0
 40
0.8757895105597431
 41
3.1415926535897931
 42
4.7123889803846897
210
0.0
220
0.0
230
1.0
 62
5
  6
CONTINUOUS
  8
1
 60
0
  0
ELLIPSE
  5
B8
100
AcDbEntity
100
AcDbEllipse
 10
878.96347711782312
 20
282.80650839168112
 30
0.0
 11
1.0961538000001418
 21
0.0
 31
0.0
 40
0.8757895105599525
 41
4.7123889803846897
 42
6.2831853071795862
210
0.0
220
0.0
230
1.0
 62
5
  6
CONTINUOUS
  8
1
 60
0
  0
ELLIPSE
  5
B9
100
AcDbEntity
100
AcDbEllipse
 10
878.96347711782232
 20
289.52650839167967
 30
0.0
 11
1.0961538000012072
 21
0.0
 31
0.0
 40
0.8757895105598331
 41
0.0
 42
1.5707963267948966
210
0.0
220
0.0
230
1.0
 62
5
  6
CONTINUOUS
  8
1
 60
0
  0
ELLIPSE
  5
BA
100
AcDbEntity
100
AcDbEllipse
 10
871.29040051782499
 20
289.5265083916791
 30
0.0
 11
1.0961538000024513
 21
0.0
 31
0.0
 40
0.8757895105596235
 41
1.5707963267948966
 42
3.1415926535897931
210
0.0
220
0.0
230
1.0
 62
5
  6
CONTINUOUS
  8
1
 60
0
  0
ELLIPSE
  5
BB
100
AcDbEntity
100
AcDbEllipse
 10
763.54996280205364
 20
289.13600085577571
 30
0.0
 11
8.3233383997801234
 21
0.0
 31
0.0
 40
0.875789510647419
 41
4.34746752350215
 42
4.7123889803846897
210
0.0
220
0.0
230
1.0
 62
3
  6
HIDDEN
  8
3
 60
0
  0
ELLIPSE
  5
BC
100
AcDbEntity
100
AcDbEllipse
 10
796.20386521782325
 20
279.44650839168065
 30
0.0
 11
12.879807149999998
 21
0.0
 31
0.0
 40
0.8757895105595606
 41
0.0
 42
6.2831853071795862
210
0.0
220
0.0
230
1.0
 62
5
  6
CONTINUOUS
  8
1
 60
0
  0
ELLIPSE
  5
BD
100
AcDbEntity
100
AcDbEllipse
 10
796.20386521782325
 20
279.44650839168065
 30
0.0
 11
8.2211534999999678
 21
0.0
 31
0.0
 40
0.8757895105595644
 41
0.0
 42
6.2831853071795862
210
0.0
220
0.0
230
1.0
 62
5
  6
CONTINUOUS
  8
1
 60
0
  0
ELLIPSE
  5
BE
100
AcDbEntity
100
AcDbEllipse
 10
796.20386521782325
 20
279.44650839168071
 30
0.0
 11
4.9326921000000059
 21
0.0
 31
0.0
 40
0.8757895105595606
 41
0.0
 42
6.2831853071795862
210
0.0
220
0.0
230
1.0
 62
5
  6
CONTINUOUS
  8
1
 60
0
  0
ELLIPSE
  5
BF
100
AcDbEntity
100
AcDbEllipse
 10
796.20386521782336
 20
279.44650839168088
 30
0.0
 11
13.427884049999927
 21
0.0
 31
0.0
 40
0.8757895105595511
 41
0.0817235911974936
 42
3.0598690623922953
210
0.0
220
0.0
230
1.0
 62
5
  6
CONTINUOUS
  8
1
 60
0
  0
ELLIPSE
  5
C0
100
AcDbEntity
100
AcDbEllipse
 10
794.45050257141384
 20
271.68821711580722
 30
0.0
 11
26.728695723627098
 21
0.0
 31
0.0
 40
0.87578951055949
 41
1.5051506773688836
 42
2.6236839555363711
210
0.0
220
0.0
230
1.0
 62
5
  6
CONTINUOUS
  8
1
 60
0
  0
ELLIPSE
  5
C1
100
AcDbEntity
100
AcDbEllipse
 10
773.13190453089385
 20
282.32650839168065
 30
0.0
 11
2.1923075999995678
 21
0.0
 31
0.0
 40
0.875789510559657
 41
2.6236839555361962
 42
4.7123889803846897
210
0.0
220
0.0
230
1.0
 62
5
  6
CONTINUOUS
  8
1
 60
0
  0
ELLIPSE
  5
C2
100
AcDbEntity
100
AcDbEllipse
 10
796.2038652178245
 20
279.44650839168241
 30
0.0
 11
17.812499249998176
 21
0.0
 31
0.0
 40
0.875789510559525
 41
0.0615773687218343
 42
1.5707963267948966
210
0.0
220
0.0
230
1.0
 62
5
  6
CONTINUOUS
  8
1
 60
0
  0
ELLIPSE
  5
C3
100
AcDbEntity
100
AcDbEllipse
 10
763.5499628020325
 20
289.13600085430318
 30
0.0
 11
9.9675690989157015
 21
0.0
 31
0.0
 40
0.8757895105599496
 41
3.2105817889512798
 42
4.0812588866101622
210
0.0
220
0.0
230
1.0
 62
2
  6
CONTINUOUS
  8
1
 60
0
  0
ELLIPSE
  5
C4
100
AcDbEntity
100
AcDbEllipse
 10
763.5499628020973
 20
289.13600085430772
 30
0.0
 11
8.3233383989822443
 21
0.0
 31
0.0
 40
0.8757895105567297
 41
3.218367120740484
 42
3.9276786859437398
210
0.0
220
0.0
230
1.0
 62
2
  6
CONTINUOUS
  8
1
 60
0
  0
ELLIPSE
  5
C5
100
AcDbEntity
100
AcDbEllipse
 10
868.41299679282406
 20
295.56558951415633
 30
0.0
 11
13.290864824998632
 21
0.0
 31
0.0
 40
0.8757895105595325
 41
0.0
 42
1.5605140881621482
210
0.0
220
0.0
230
1.0
 62
5
  6
CONTINUOUS
  8
1
 60
0
  0
ELLIPSE
  5
C6
100
AcDbEntity
100
AcDbEllipse
 10
824.21865007048984
 20
242.87956660027515
 30
0.0
 11
98.280121037906255
 21
0.0
 31
0.0
 40
0.8757895105588854
 41
1.6141399190390417
 42
2.2751732870764401
210
0.0
220
0.0
230
1.0
 62
5
  6
CONTINUOUS
  8
1
 60
0
  0
ELLIPSE
  5
C7
100
AcDbEntity
100
AcDbEllipse
 10
779.63975737312182
 20
293.2135228685807
 30
0.0
 11
26.033652750049853
 21
0.0
 31
0.0
 40
0.8757895105586165
 41
2.5300359008692546
 42
3.1415926535897931
210
0.0
220
0.0
230
1.0
 62
5
  6
CONTINUOUS
  8
1
 60
0
  0
ELLIPSE
  5
C8
100
AcDbEntity
100
AcDbEllipse
 10
824.2186500705044
 20
242.87956660007825
 30
0.0
 11
96.635890338031288
 21
0.0
 31
0.0
 40
0.8757895105598113
 41
1.6141399190391377
 42
2.2751732870755879
210
0.0
220
0.0
230
1.0
 62
3
  6
HIDDEN
  8
3
 60
0
  0
ELLIPSE
  5
C9
100
AcDbEntity
100
AcDbEllipse
 10
779.63975737319743
 20
293.21352286857632
 30
0.0
 11
24.389422050126299
 21
0.0
 31
0.0
 40
0.8757895105574438
 41
2.5300359008703142
 42
3.1415926535897931
210
0.0
220
0.0
230
1.0
 62
3
  6
HIDDEN
  8
3
 60
0
  0
ELLIPSE
  5
CA
100
AcDbEntity
100
AcDbEllipse
 10
868.41299679282236
 20
295.56558951415411
 30
0.0
 11
11.64663412500137
 21
0.0
 31
0.0
 40
0.8757895105595822
 41
0.0
 42
1.5605140881620201
210
0.0
220
0.0
230
1.0
 62
3
  6
HIDDEN
  8
3
 60
0
  0
ELLIPSE
  5
CB
100
AcDbEntity
100
AcDbEllipse
 10
824.21865007046199
 20
242.87956660051151
 30
0.0
 11
96.635890337762206
 21
0.0
 31
0.0
 40
0.875789510557672
 41
1.9280329593897496
 42
2.2751732870772927
210
0.0
220
0.0
230
1.0
 62
2
  6
CONTINUOUS
  8
1
 60
0
  0
ELLIPSE
  5
CC
100
AcDbEntity
100
AcDbEllipse
 10
779.63975737360556
 20
293.21352286857353
 30
0.0
 11
24.389422050534204
 21
0.0
 31
0.0
 40
0.8757895105502068
 41
2.5300359008756352
 42
3.1415926535897931
210
0.0
220
0.0
230
1.0
 62
2
  6
CONTINUOUS
  8
1
 60
0
  0
ELLIPSE
  5
CD
100
AcDbEntity
100
AcDbEllipse
 10
779.63975737327996
 20
293.21352286858018
 30
0.0
 11
26.033652750206848
 21
0.0
 31
0.0
 40
0.8757895105562454
 41
2.530035900871177
 42
3.1415926535897931
210
0.0
220
0.0
230
1.0
 62
2
  6
CONTINUOUS
  8
1
 60
0
  0
ELLIPSE
  5
CE
100
AcDbEntity
100
AcDbEllipse
 10
824.21865007072006
 20
242.87956659913212
 30
0.0
 11
98.280121038759233
 21
0.0
 31
0.0
 40
0.8757895105635964
 41
1.9217956698357459
 42
2.2751732870722128
210
0.0
220
0.0
230
1.0
 62
2
  6
CONTINUOUS
  8
1
 60
0
  0
SPLINE
  5
CF
100
AcDbEntity
100
AcDbSpline
 70
15
 71
2
 72
32
 73
29
 74
0
 42
0.0000001
 43
0.0000001
 44
0.0
 40
0.0
 40
0.0
 40
0.0
 40
0.0714285714285714
 40
0.0714285714285714
 40
0.1428571428571429
 40
0.1428571428571429
 40
0.2142857142857143
 40
0.2142857142857143
 40
0.2857142857142857
 40
0.2857142857142857
 40
0.3571428571428572
 40
0.3571428571428572
 40
0.4285714285714286
 40
0.4285714285714286
 40
0.5
 40
0.5
 40
0.5714285714285714
 40
0.5714285714285714
 40
0.6428571428571429
 40
0.6428571428571429
 40
0.7142857142857143
 40
0.7142857142857143
 40
0.7857142857142857
 40
0.7857142857142857
 40
0.8571428571428571
 40
0.8571428571428571
 40
0.9285714285714286
 40
0.9285714285714286
 40
1.0
 40
1.0
 40
1.0
 10
816.5845140166723
 20
292.21713249287677
 30
0.0
 41
1.0
 10
816.74075378398197
 20
292.92562341954294
 30
0.0
 41
1.0
 10
816.89699355129164
 20
293.63411434620917
 30
0.0
 41
1.0
 10
818.26863348474365
 20
294.16040735844354
 30
0.0
 41
1.0
 10
819.64027341819565
 20
294.6867003706779
 30
0.0
 41
1.0
 10
819.08614057742625
 20
294.68467071858561
 30
0.0
 41
1.0
 10
818.53200773665685
 20
294.68264106649337
 30
0.0
 41
1.0
 10
818.3783474661426
 20
294.94553834723268
 30
0.0
 41
1.0
 10
818.22468719562835
 20
295.20843562797199
 30
0.0
 41
1.0
 10
819.01937369852021
 20
295.37796003054325
 30
0.0
 41
1.0
 10
819.81406020141219
 20
295.54748443311451
 30
0.0
 41
1.0
 10
820.79079619202298
 20
295.16264863386664
 30
0.0
 41
1.0
 10
821.76753218263389
 20
294.77781283461883
 30
0.0
 41
1.0
 10
821.97948585871927
 20
294.86021537661026
 30
0.0
 41
1.0
 10
822.19143953480454
 20
294.94261791860163
 30
0.0
 41
1.0
 10
823.0844793957458
 20
295.28981055050275
 30
0.0
 41
0.7071067811865476
 10
823.43167202764675
 20
294.39677068956161
 30
0.0
 41
1.0
 10
823.77886465954782
 20
293.50373082862046
 30
0.0
 41
0.7071067811865476
 10
822.88582479860668
 20
293.15653819671934
 30
0.0
 41
1.0
 10
822.66208594777561
 20
293.0695538594282
 30
0.0
 41
1.0
 10
822.43834709694454
 20
292.982569522137
 30
0.0
 41
1.0
 10
821.89223059528081
 20
292.30356683573802
 30
0.0
 41
1.0
 10
821.34611409361708
 20
291.62456414933911
 30
0.0
 41
1.0
 10
819.80320318357462
 20
291.22908373945438
 30
0.0
 41
1.0
 10
818.26029227353229
 20
290.83360332956971
 30
0.0
 41
1.0
 10
817.57945991332122
 20
291.12139057540782
 30
0.0
 41
1.0
 10
816.89862755311026
 20
291.40917782124592
 30
0.0
 41
1.0
 10
816.74157078489134
 20
291.81315515706137
 30
0.0
 41
1.0
 10
816.5845140166723
 20
292.21713249287677
 30
0.0
 41
1.0
 62
4
  6
CONTINUOUS
  8
2
 60
0
  0
SPLINE
  5
D0
100
AcDbEntity
100
AcDbSpline
 70
15
 71
2
 72
22
 73
19
 74
0
 42
0.0000001
 43
0.0000001
 44
0.0
 40
0.0
 40
0.0
 40
0.0
 40
0.1111111111111111
 40
0.1111111111111111
 40
0.2222222222222222
 40
0.2222222222222222
 40
0.3333333333333333
 40
0.3333333333333333
 40
0.4444444444444444
 40
0.4444444444444444
 40
0.5555555555555556
 40
0.5555555555555556
 40
0.6666666666666666
 40
0.6666666666666666
 40
0.7777777777777778
 40
0.7777777777777778
 40
0.8888888888888888
 40
0.8888888888888888
 40
1.0
 40
1.0
 40
1.0
 10
828.19469303652409
 20
287.00747445126558
 30
0.0
 41
1.0
 10
830.35863369391939
 20
287.08043688767646
 30
0.0
 41
1.0
 10
832.52257435131469
 20
287.15339932408727
 30
0.0
 41
1.0
 10
833.22581305569656
 20
287.49650644716723
 30
0.0
 41
1.0
 10
833.92905176007832
 20
287.83961357024725
 30
0.0
 41
1.0
 10
836.95990282205059
 20
289.31835269805356
 30
0.0
 41
0.7741102651710601
 10
836.11219126345884
 20
292.58241652729981
 30
0.0
 41
1.0
 10
835.26447970486709
 20
295.84648035654612
 30
0.0
 41
0.7741102651710601
 10
831.89709833496374
 20
295.6635315178184
 30
0.0
 41
1.0
 10
822.71043920442264
 20
295.73833522280916
 30
0.0
 41
1.0
 10
813.52378007388154
 20
295.81313892779991
 30
0.0
 41
1.0
 10
810.58554522620807
 20
296.02080929600783
 30
0.0
 41
0.7071067811865487
 10
810.37787485800027
 20
293.08257444833441
 30
0.0
 41
1.0
 10
810.17020448979247
 20
290.14433960066106
 30
0.0
 41
0.7071067811865487
 10
813.10843933746582
 20
289.9366692324532
 30
0.0
 41
1.0
 10
815.90133702661592
 20
289.563064621661
 30
0.0
 41
1.0
 10
818.69423471576602
 20
289.1894600108688
 30
0.0
 41
1.0
 10
823.44446387614505
 20
288.09846723106716
 30
0.0
 41
1.0
 10
828.19469303652409
 20
287.00747445126558
 30
0.0
 41
1.0
 62
4
  6
CONTINUOUS
  8
2
 60
0
  0
SPLINE
  5
D1
100
AcDbEntity
100
AcDbSpline
 70
15
 71
2
 72
24
 73
21
 74
0
 42
0.0000001
 43
0.0000001
 44
0.0
 40
0.0
 40
0.0
 40
0.0
 40
0.1
 40
0.1
 40
0.2
 40
0.2
 40
0.3
 40
0.3
 40
0.4
 40
0.4
 40
0.5
 40
0.5
 40
0.6
 40
0.6
 40
0.7
 40
0.7
 40
0.8
 40
0.8
 40
0.9
 40
0.9
 40
1.0
 40
1.0
 40
1.0
 10
791.50696634463065
 20
294.0955777243995
 30
0.0
 41
1.0
 10
791.50696634463065
 20
290.52104305804016
 30
0.0
 41
1.0
 10
791.50696634463065
 20
286.94650839168088
 30
0.0
 41
1.0
 10
792.0803425067578
 20
286.94650839168088
 30
0.0
 41
1.0
 10
792.65371866888495
 20
286.94650839168088
 30
0.0
 41
1.0
 10
795.28882135218294
 20
287.30394374218929
 30
0.0
 41
1.0
 10
797.92392403548092
 20
287.6613790926977
 30
0.0
 41
1.0
 10
798.81134109227412
 20
288.04543256262446
 30
0.0
 41
0.8717087086379249
 10
798.94447456476837
 20
289.00318074401247
 30
0.0
 41
1.0
 10
799.07760803726273
 20
289.96092892540048
 30
0.0
 41
0.8717087086379249
 10
798.32858379638446
 20
290.57245879959072
 30
0.0
 41
1.0
 10
797.08416739387167
 20
291.60826002929605
 30
0.0
 41
1.0
 10
795.83975099135887
 20
292.64406125900132
 30
0.0
 41
1.0
 10
795.16857077577902
 20
294.91636169961282
 30
0.0
 41
1.0
 10
794.49739056019928
 20
297.18866214022438
 30
0.0
 41
1.0
 10
793.51730899843221
 20
298.05526909582414
 30
0.0
 41
1.0
 10
792.53722743666515
 20
298.92187605142391
 30
0.0
 41
1.0
 10
792.02209689064784
 20
298.92187605142391
 30
0.0
 41
1.0
 10
791.50696634463065
 20
298.92187605142391
 30
0.0
 41
1.0
 10
791.50696634463065
 20
296.50872688791173
 30
0.0
 41
1.0
 10
791.50696634463065
 20
294.0955777243995
 30
0.0
 41
1.0
 62
4
  6
CONTINUOUS
  8
2
 60
0
  0
SPLINE
  5
D2
100
AcDbEntity
100
AcDbSpline
 70
15
 71
2
 72
24
 73
21
 74
0
 42
0.0000001
 43
0.0000001
 44
0.0
 40
0.0
 40
0.0
 40
0.0
 40
0.1
 40
0.1
 40
0.2
 40
0.2
 40
0.3
 40
0.3
 40
0.4
 40
0.4
 40
0.5
 40
0.5
 40
0.6
 40
0.6
 40
0.7
 40
0.7
 40
0.8
 40
0.8
 40
0.9
 40
0.9
 40
1.0
 40
1.0
 40
1.0
 10
796.27609163996203
 20
292.7987596724218
 30
0.0
 41
1.0
 10
799.44713075650566
 20
293.14112645654802
 30
0.0
 41
1.0
 10
802.61816987304917
 20
293.48349324067431
 30
0.0
 41
1.0
 10
805.58998082130154
 20
294.09828516458731
 30
0.0
 41
1.0
 10
808.56179176955391
 20
294.71307708850031
 30
0.0
 41
1.0
 10
810.81347252109481
 20
294.95618373886055
 30
0.0
 41
1.0
 10
813.06515327263571
 20
295.19929038922066
 30
0.0
 41
1.0
 10
815.10810728239426
 20
295.41986149185698
 30
0.0
 41
0.7511149843213183
 10
815.58906201571494
 20
293.42211394979796
 30
0.0
 41
1.0
 10
816.07001674903552
 20
291.42436640773894
 30
0.0
 41
0.7511149843213183
 10
814.15052135620135
 20
290.69098374214445
 30
0.0
 41
1.0
 10
811.86450266430006
 20
289.81756331710767
 30
0.0
 41
1.0
 10
809.57848397239866
 20
288.94414289207089
 30
0.0
 41
1.0
 10
807.57636360783818
 20
288.72798046535331
 30
0.0
 41
1.0
 10
805.57424324327781
 20
288.51181803863579
 30
0.0
 41
1.0
 10
801.11338476639844
 20
288.91199912370809
 30
0.0
 41
1.0
 10
796.65252628951896
 20
289.31218020878038
 30
0.0
 41
1.0
 10
794.90923655769836
 20
289.12396288400197
 30
0.0
 41
0.7071067811865476
 10
794.72101923291984
 20
290.86725261582262
 30
0.0
 41
1.0
 10
794.53280190814132
 20
292.61054234764333
 30
0.0
 41
0.7071067811865476
 10
796.27609163996203
 20
292.7987596724218
 30
0.0
 41
1.0
 62
4
  6
CONTINUOUS
  8
2
 60
0
  0
SPLINE
  5
D3
100
AcDbEntity
100
AcDbSpline
 70
15
 71
2
 72
26
 73
23
 74
0
 42
0.0000001
 43
0.0000001
 44
0.0
 40
0.0
 40
0.0
 40
0.0
 40
0.0909090909090909
 40
0.0909090909090909
 40
0.1818181818181818
 40
0.1818181818181818
 40
0.2727272727272727
 40
0.2727272727272727
 40
0.3636363636363637
 40
0.3636363636363637
 40
0.4545454545454545
 40
0.4545454545454545
 40
0.5454545454545454
 40
0.5454545454545454
 40
0.6363636363636364
 40
0.6363636363636364
 40
0.7272727272727273
 40
0.7272727272727273
 40
0.8181818181818182
 40
0.8181818181818182
 40
0.9090909090909091
 40
0.9090909090909091
 40
1.0
 40
1.0
 40
1.0
 10
828.23461425398273
 20
289.01194244821079
 30
0.0
 41
1.0
 10
830.44237680241974
 20
285.62589693902532
 30
0.0
 41
0.7539574394381543
 10
834.09879128949524
 20
287.34931005237371
 30
0.0
 41
1.0
 10
837.75520577657085
 20
289.07272316572221
 30
0.0
 41
0.7539574394381543
 10
836.54859614047325
 20
292.93065173512753
 30
0.0
 41
1.0
 10
836.25394383139769
 20
295.50190826977496
 30
0.0
 41
1.0
 10
835.95929152232202
 20
298.07316480442239
 30
0.0
 41
1.0
 10
835.99608576953983
 20
299.12681418710497
 30
0.0
 41
1.0
 10
836.03288001675764
 20
300.18046356978749
 30
0.0
 41
1.0
 10
836.62791346733286
 20
302.44966362729781
 30
0.0
 41
1.0
 10
837.22294691790808
 20
304.71886368480818
 30
0.0
 41
1.0
 10
837.27175263663935
 20
306.11647660805136
 30
0.0
 41
1.0
 10
837.32055835537062
 20
307.51408953129447
 30
0.0
 41
1.0
 10
836.41855220708885
 20
309.78648558576856
 30
0.0
 41
1.0
 10
835.51654605880697
 20
312.05888164024259
 30
0.0
 41
1.0
 10
833.44737442406858
 20
312.13113870593816
 30
0.0
 41
1.0
 10
831.37820278933009
 20
312.20339577163372
 30
0.0
 41
1.0
 10
829.96494286892562
 20
309.9158183704493
 30
0.0
 41
1.0
 10
828.55168294852126
 20
307.62824096926488
 30
0.0
 41
1.0
 10
828.10625883867101
 20
303.89919835799543
 30
0.0
 41
1.0
 10
827.66083472882087
 20
300.17015574672598
 30
0.0
 41
1.0
 10
827.9477244914018
 20
294.59104909746839
 30
0.0
 41
1.0
 10
828.23461425398273
 20
289.01194244821079
 30
0.0
 41
1.0
 62
4
  6
CONTINUOUS
  8
2
 60
0
  0
SPLINE
  5
D4
100
AcDbEntity
100
AcDbSpline
 70
15
 71
2
 72
26
 73
23
 74
0
 42
0.0000001
 43
0.0000001
 44
0.0
 40
0.0
 40
0.0
 40
0.0
 40
0.0909090909090909
 40
0.0909090909090909
 40
0.1818181818181818
 40
0.1818181818181818
 40
0.2727272727272727
 40
0.2727272727272727
 40
0.3636363636363637
 40
0.3636363636363637
 40
0.4545454545454545
 40
0.4545454545454545
 40
0.5454545454545454
 40
0.5454545454545454
 40
0.6363636363636364
 40
0.6363636363636364
 40
0.7272727272727273
 40
0.7272727272727273
 40
0.8181818181818182
 40
0.8181818181818182
 40
0.9090909090909091
 40
0.9090909090909091
 40
1.0
 40
1.0
 40
1.0
 10
829.58694145539778
 20
295.43201220039668
 30
0.0
 41
1.0
 10
826.2008959462122
 20
293.22424965195961
 30
0.0
 41
0.7539574394381543
 10
827.92430905956064
 20
289.56783516488412
 30
0.0
 41
1.0
 10
829.64772217290897
 20
285.91142067780868
 30
0.0
 41
0.7539574394381543
 10
833.5056507423144
 20
287.1180303139061
 30
0.0
 41
1.0
 10
836.07690727696172
 20
287.41268262298172
 30
0.0
 41
1.0
 10
838.64816381160915
 20
287.70733493205728
 30
0.0
 41
1.0
 10
839.70181319429184
 20
287.67054068483958
 30
0.0
 41
1.0
 10
840.75546257697442
 20
287.63374643762182
 30
0.0
 41
1.0
 10
843.02466263448468
 20
287.03871298704661
 30
0.0
 41
1.0
 10
845.29386269199506
 20
286.44367953647139
 30
0.0
 41
1.0
 10
846.69147561523823
 20
286.39487381774006
 30
0.0
 41
1.0
 10
848.08908853848141
 20
286.34606809900879
 30
0.0
 41
1.0
 10
850.36148459295543
 20
287.24807424729067
 30
0.0
 41
1.0
 10
852.63388064742946
 20
288.1500803955725
 30
0.0
 41
1.0
 10
852.70613771312514
 20
290.21925203031094
 30
0.0
 41
1.0
 10
852.77839477882071
 20
292.28842366504932
 30
0.0
 41
1.0
 10
850.49081737763618
 20
293.70168358545368
 30
0.0
 41
1.0
 10
848.20323997645175
 20
295.11494350585809
 30
0.0
 41
1.0
 10
844.47419736518236
 20
295.56036761570829
 30
0.0
 41
1.0
 10
840.74515475391297
 20
296.00579172555848
 30
0.0
 41
1.0
 10
835.16604810465537
 20
295.71890196297761
 30
0.0
 41
1.0
 10
829.58694145539778
 20
295.43201220039668
 30
0.0
 41
1.0
 62
4
  6
CONTINUOUS
  8
2
 60
0
  0
SPLINE
  5
D5
100
AcDbEntity
100
AcDbSpline
 70
15
 71
2
 72
26
 73
23
 74
0
 42
0.0000001
 43
0.0000001
 44
0.0
 40
0.0
 40
0.0
 40
0.0
 40
0.0909090909090909
 40
0.0909090909090909
 40
0.1818181818181818
 40
0.1818181818181818
 40
0.2727272727272727
 40
0.2727272727272727
 40
0.3636363636363637
 40
0.3636363636363637
 40
0.4545454545454545
 40
0.4545454545454545
 40
0.5454545454545454
 40
0.5454545454545454
 40
0.6363636363636364
 40
0.6363636363636364
 40
0.7272727272727273
 40
0.7272727272727273
 40
0.8181818181818182
 40
0.8181818181818182
 40
0.9090909090909091
 40
0.9090909090909091
 40
1.0
 40
1.0
 40
1.0
 10
827.58113787332195
 20
292.50205345809979
 30
0.0
 41
1.0
 10
826.74796600162006
 20
288.54663384789893
 30
0.0
 41
0.7539574394381543
 10
830.55207857949449
 20
287.17979546849369
 30
0.0
 41
1.0
 10
834.35619115736881
 20
285.8129570890884
 30
0.0
 41
0.7539574394381543
 10
836.23095675419893
 20
289.39412639777771
 30
0.0
 41
1.0
 10
837.84075904017868
 20
291.42062997543678
 30
0.0
 41
1.0
 10
839.45056132615855
 20
293.4471335530958
 30
0.0
 41
1.0
 10
840.22162141136278
 20
294.16615871486727
 30
0.0
 41
1.0
 10
840.992681496567
 20
294.88518387663879
 30
0.0
 41
1.0
 10
843.01800043303604
 20
296.06899843723875
 30
0.0
 41
1.0
 10
845.04331936950507
 20
297.2528129978387
 30
0.0
 41
1.0
 10
846.06609179967984
 20
298.20656371866232
 30
0.0
 41
1.0
 10
847.08886422985461
 20
299.160314439486
 30
0.0
 41
1.0
 10
848.05787622539265
 20
301.40495576326816
 30
0.0
 41
1.0
 10
849.0268882209308
 20
303.64959708705032
 30
0.0
 41
1.0
 10
847.61485638771035
 20
305.16381584255475
 30
0.0
 41
1.0
 10
846.20282455448989
 20
306.67803459805913
 30
0.0
 41
1.0
 10
843.58593738832622
 20
306.05979877848955
 30
0.0
 41
1.0
 10
840.96905022216254
 20
305.44156295891997
 30
0.0
 41
1.0
 10
838.01725649582136
 20
303.11969404973684
 30
0.0
 41
1.0
 10
835.06546276948006
 20
300.7978251405537
 30
0.0
 41
1.0
 10
831.32330032140101
 20
296.64993929932677
 30
0.0
 41
1.0
 10
827.58113787332195
 20
292.50205345809979
 30
0.0
 41
1.0
 62
4
  6
CONTINUOUS
  8
2
 60
0
  0
SPLINE
  5
D6
100
AcDbEntity
100
AcDbSpline
 70
15
 71
2
 72
32
 73
29
 74
0
 42
0.0000001
 43
0.0000001
 44
0.0
 40
0.0
 40
0.0
 40
0.0
 40
0.0714285714285714
 40
0.0714285714285714
 40
0.1428571428571429
 40
0.1428571428571429
 40
0.2142857142857143
 40
0.2142857142857143
 40
0.2857142857142857
 40
0.2857142857142857
 40
0.3571428571428572
 40
0.3571428571428572
 40
0.4285714285714286
 40
0.4285714285714286
 40
0.5
 40
0.5
 40
0.5714285714285714
 40
0.5714285714285714
 40
0.6428571428571429
 40
0.6428571428571429
 40
0.7142857142857143
 40
0.7142857142857143
 40
0.7857142857142857
 40
0.7857142857142857
 40
0.8571428571428571
 40
0.8571428571428571
 40
0.9285714285714286
 40
0.9285714285714286
 40
1.0
 40
1.0
 40
1.0
 10
832.79213150006376
 20
307.08211243770711
 30
0.0
 41
1.0
 10
833.50062242672993
 20
306.92587267039744
 30
0.0
 41
1.0
 10
834.20911335339622
 20
306.76963290308771
 30
0.0
 41
1.0
 10
834.73540636563052
 20
305.39799296963571
 30
0.0
 41
1.0
 10
835.26169937786472
 20
304.02635303618371
 30
0.0
 41
1.0
 10
835.25966972577248
 20
304.58048587695316
 30
0.0
 41
1.0
 10
835.25764007368036
 20
305.13461871772262
 30
0.0
 41
1.0
 10
835.52053735441962
 20
305.28827898823681
 30
0.0
 41
1.0
 10
835.78343463515887
 20
305.44193925875101
 30
0.0
 41
1.0
 10
835.95295903773012
 20
304.64725275585914
 30
0.0
 41
1.0
 10
836.12248344030149
 20
303.85256625296728
 30
0.0
 41
1.0
 10
835.73764764105363
 20
302.87583026235643
 30
0.0
 41
1.0
 10
835.35281184180576
 20
301.89909427174553
 30
0.0
 41
1.0
 10
835.43521438379707
 20
301.68714059566025
 30
0.0
 41
1.0
 10
835.51761692578839
 20
301.47518691957498
 30
0.0
 41
1.0
 10
835.86480955768968
 20
300.58214705863395
 30
0.0
 41
0.7071067811865476
 10
834.97176969674865
 20
300.23495442673283
 30
0.0
 41
1.0
 10
834.07872983580762
 20
299.88776179483165
 30
0.0
 41
0.7071067811865476
 10
833.73153720390633
 20
300.78080165577262
 30
0.0
 41
1.0
 10
833.64455286661519
 20
301.0045405066038
 30
0.0
 41
1.0
 10
833.55756852932404
 20
301.22827935743487
 30
0.0
 41
1.0
 10
832.87856584292513
 20
301.7743958590986
 30
0.0
 41
1.0
 10
832.1995631565261
 20
302.32051236076228
 30
0.0
 41
1.0
 10
831.80408274664137
 20
303.86342327080473
 30
0.0
 41
1.0
 10
831.40860233675664
 20
305.40633418084718
 30
0.0
 41
1.0
 10
831.69638958259475
 20
306.08716654105808
 30
0.0
 41
1.0
 10
831.98417682843285
 20
306.76799890126898
 30
0.0
 41
1.0
 10
832.38815416424836
 20
306.92505566948807
 30
0.0
 41
1.0
 10
832.79213150006376
 20
307.08211243770711
 30
0.0
 41
1.0
 62
4
  6
CONTINUOUS
  8
2
 60
0
  0
SPLINE
  5
D7
100
AcDbEntity
100
AcDbSpline
 70
15
 71
2
 72
16
 73
13
 74
0
 42
0.0000001
 43
0.0000001
 44
0.0
 40
0.0
 40
0.0
 40
0.0
 40
0.1666666666666667
 40
0.1666666666666667
 40
0.3333333333333333
 40
0.3333333333333333
 40
0.5
 40
0.5
 40
0.6666666666666666
 40
0.6666666666666666
 40
0.8333333333333334
 40
0.8333333333333334
 40
1.0
 40
1.0
 40
1.0
 10
837.49682000998575
 20
296.98221413094927
 30
0.0
 41
1.0
 10
842.36288414498199
 20
299.366139657551
 30
0.0
 41
1.0
 10
847.22894827997823
 20
301.75006518415267
 30
0.0
 41
1.0
 10
849.03534504573952
 20
302.74424618313247
 30
0.0
 41
0.7071067811865476
 10
848.04116404675983
 20
304.55064294889388
 30
0.0
 41
1.0
 10
847.04698304778015
 20
306.35703971465529
 30
0.0
 41
0.7071067811865476
 10
845.24058628201874
 20
305.3628587156756
 30
0.0
 41
1.0
 10
840.62306739676728
 20
302.52733399763349
 30
0.0
 41
1.0
 10
836.00554851151594
 20
299.69180927959138
 30
0.0
 41
1.0
 10
834.65075093719497
 20
298.94617353035653
 30
0.0
 41
0.7071067811865476
 10
835.39638668642976
 20
297.59137595603545
 30
0.0
 41
1.0
 10
836.14202243566467
 20
296.23657838171437
 30
0.0
 41
0.7071067811865476
 10
837.49682000998575
 20
296.98221413094927
 30
0.0
 41
1.0
 62
4
  6
CONTINUOUS
  8
2
 60
0
  0
SPLINE
  5
D8
100
AcDbEntity
100
AcDbSpline
 70
15
 71
2
 72
16
 73
13
 74
0
 42
0.0000001
 43
0.0000001
 44
0.0
 40
0.0
 40
0.0
 40
0.0
 40
0.1666666666666667
 40
0.1666666666666667
 40
0.3333333333333333
 40
0.3333333333333333
 40
0.5
 40
0.5
 40
0.6666666666666666
 40
0.6666666666666666
 40
0.8333333333333334
 40
0.8333333333333334
 40
1.0
 40
1.0
 40
1.0
 10
844.58805423040417
 20
304.79734923854642
 30
0.0
 41
1.0
 10
845.90649697457593
 20
306.5469818548026
 30
0.0
 41
1.0
 10
847.22493971874781
 20
308.29661447105877
 30
0.0
 41
1.0
 10
848.4658270073802
 20
309.9433275216528
 30
0.0
 41
0.7071067811865476
 10
850.112540057974
 20
308.7024402330207
 30
0.0
 41
1.0
 10
851.75925310856815
 20
307.46155294438847
 30
0.0
 41
0.7071067811865476
 10
850.51836581993587
 20
305.81483989379433
 30
0.0
 41
1.0
 10
849.19992307576422
 20
304.06520727753809
 30
0.0
 41
1.0
 10
847.88148033159246
 20
302.31557466128186
 30
0.0
 41
1.0
 10
846.64059304296029
 20
300.66886161068777
 30
0.0
 41
0.7071067811865476
 10
844.99387999236603
 20
301.90974889931999
 30
0.0
 41
1.0
 10
843.34716694177189
 20
303.15063618795227
 30
0.0
 41
0.7071067811865476
 10
844.58805423040417
 20
304.79734923854642
 30
0.0
 41
1.0
 62
4
  6
CONTINUOUS
  8
2
 60
0
  0
SPLINE
  5
D9
100
AcDbEntity
100
AcDbSpline
 70
15
 71
2
 72
16
 73
13
 74
0
 42
0.0000001
 43
0.0000001
 44
0.0
 40
0.0
 40
0.0
 40
0.0
 40
0.1666666666666667
 40
0.1666666666666667
 40
0.3333333333333333
 40
0.3333333333333333
 40
0.5
 40
0.5
 40
0.6666666666666666
 40
0.6666666666666666
 40
0.8333333333333334
 40
0.8333333333333334
 40
1.0
 40
1.0
 40
1.0
 10
832.07810834033091
 20
299.19134051971321
 30
0.0
 41
1.0
 10
833.83324538217153
 20
304.3178573729615
 30
0.0
 41
1.0
 10
835.58838242401225
 20
309.44437422620979
 30
0.0
 41
1.0
 10
836.16270570049016
 20
311.42468175489853
 30
0.0
 41
0.7071067811865476
 10
834.18239817180142
 20
311.9990050313765
 30
0.0
 41
1.0
 10
832.2020906431128
 20
312.57332830785447
 30
0.0
 41
0.7071067811865476
 10
831.62776736663477
 20
310.59302077916573
 30
0.0
 41
1.0
 10
830.36770720696632
 20
305.32292310679793
 30
0.0
 41
1.0
 10
829.10764704729775
 20
300.05282543443019
 30
0.0
 41
1.0
 10
828.67690458993923
 20
298.56759478791366
 30
0.0
 41
0.7071067811865476
 10
830.1621352364557
 20
298.13685233055514
 30
0.0
 41
1.0
 10
831.64736588297239
 20
297.70610987319662
 30
0.0
 41
0.7071067811865476
 10
832.07810834033091
 20
299.19134051971321
 30
0.0
 41
1.0
 62
4
  6
CONTINUOUS
  8
2
 60
0
  0
SPLINE
  5
DA
100
AcDbEntity
100
AcDbSpline
 70
15
 71
2
 72
16
 73
13
 74
0
 42
0.0000001
 43
0.0000001
 44
0.0
 40
0.0
 40
0.0
 40
0.0
 40
0.1666666666666667
 40
0.1666666666666667
 40
0.3333333333333333
 40
0.3333333333333333
 40
0.5
 40
0.5
 40
0.6666666666666666
 40
0.6666666666666666
 40
0.8333333333333334
 40
0.8333333333333334
 40
1.0
 40
1.0
 40
1.0
 10
839.7663395269002
 20
291.58851811404861
 30
0.0
 41
1.0
 10
844.89285638014849
 20
289.83338107220789
 30
0.0
 41
1.0
 10
850.01937323339678
 20
288.07824403036722
 30
0.0
 41
1.0
 10
851.99968076208552
 20
287.50392075388936
 30
0.0
 41
0.7071067811865476
 10
852.57400403856343
 20
289.4842282825781
 30
0.0
 41
1.0
 10
853.14832731504134
 20
291.46453581126684
 30
0.0
 41
0.7071067811865476
 10
851.1680197863526
 20
292.03885908774481
 30
0.0
 41
1.0
 10
845.89792211398481
 20
293.29891924741332
 30
0.0
 41
1.0
 10
840.62782444161701
 20
294.55897940708178
 30
0.0
 41
1.0
 10
839.14259379510042
 20
294.98972186444018
 30
0.0
 41
0.7071067811865476
 10
838.71185133774202
 20
293.5044912179236
 30
0.0
 41
1.0
 10
838.28110888038384
 20
292.01926057140702
 30
0.0
 41
0.7071067811865476
 10
839.7663395269002
 20
291.58851811404861
 30
0.0
 41
1.0
 62
4
  6
CONTINUOUS
  8
2
 60
0
  0
SPLINE
  5
DB
100
AcDbEntity
100
AcDbSpline
 70
15
 71
2
 72
20
 73
17
 74
0
 42
0.0000001
 43
0.0000001
 44
0.0
 40
0.0
 40
0.0
 40
0.0
 40
0.125
 40
0.125
 40
0.25
 40
0.25
 40
0.375
 40
0.375
 40
0.5
 40
0.5
 40
0.625
 40
0.625
 40
0.75
 40
0.75
 40
0.875
 40
0.875
 40
1.0
 40
1.0
 40
1.0
 10
833.74706421654423
 20
300.58684968169109
 30
0.0
 41
1.0
 10
836.31393846417404
 20
296.42444076664106
 30
0.0
 41
1.0
 10
838.88081271180363
 20
292.26203185159102
 30
0.0
 41
1.0
 10
839.22962498213417
 20
291.6964025438665
 30
0.0
 41
0.9187619935575495
 10
839.88004468019744
 20
291.56016477354729
 30
0.0
 41
1.0
 10
840.5304643782606
 20
291.42392700322807
 30
0.0
 41
0.9187619935575495
 10
841.07695118206038
 20
291.80202578260071
 30
0.0
 41
1.0
 10
841.62343798585994
 20
292.18012456197329
 30
0.0
 41
0.9187619935575495
 10
841.72525431466238
 20
292.83681318596439
 30
0.0
 41
1.0
 10
841.82707064346482
 20
293.4935018099556
 30
0.0
 41
0.9187619935575495
 10
841.42073344641858
 20
294.01933124616721
 30
0.0
 41
1.0
 10
838.43053907635294
 20
297.88885692878785
 30
0.0
 41
1.0
 10
835.44034470628742
 20
301.75838261140842
 30
0.0
 41
1.0
 10
834.84230583227441
 20
302.53228774793251
 30
0.0
 41
0.725476250110012
 10
834.03799759964636
 20
301.97580960631683
 30
0.0
 41
1.0
 10
833.23368936701831
 20
301.41933146470114
 30
0.0
 41
0.725476250110012
 10
833.74706421654423
 20
300.58684968169109
 30
0.0
 41
1.0
 62
4
  6
CONTINUOUS
  8
2
 60
0
  0
SPLINE
  5
DC
100
AcDbEntity
100
AcDbSpline
 70
15
 71
2
 72
20
 73
17
 74
0
 42
0.0000001
 43
0.0000001
 44
0.0
 40
0.0
 40
0.0
 40
0.0
 40
0.125
 40
0.125
 40
0.25
 40
0.25
 40
0.375
 40
0.375
 40
0.5
 40
0.5
 40
0.625
 40
0.625
 40
0.75
 40
0.75
 40
0.875
 40
0.875
 40
1.0
 40
1.0
 40
1.0
 10
823.07977677268832
 20
293.1720652093573
 30
0.0
 41
1.0
 10
827.24218568773836
 20
295.73893945698705
 30
0.0
 41
1.0
 10
831.40459460278828
 20
298.30581370461681
 30
0.0
 41
1.0
 10
831.9702239105128
 20
298.65462597494735
 30
0.0
 41
0.9187619935575495
 10
832.10646168083213
 20
299.30504567301057
 30
0.0
 41
1.0
 10
832.24269945115134
 20
299.95546537107373
 30
0.0
 41
0.9187619935575495
 10
831.86460067177882
 20
300.5019521748734
 30
0.0
 41
1.0
 10
831.4865018924063
 20
301.04843897867306
 30
0.0
 41
0.9187619935575495
 10
830.82981326841502
 20
301.1502553074755
 30
0.0
 41
1.0
 10
830.17312464442386
 20
301.25207163627795
 30
0.0
 41
0.9187619935575495
 10
829.6472952082122
 20
300.84573443923159
 30
0.0
 41
1.0
 10
825.77776952559157
 20
297.85554006916595
 30
0.0
 41
1.0
 10
821.90824384297105
 20
294.86534569910043
 30
0.0
 41
1.0
 10
821.1343387064469
 20
294.2673068250873
 30
0.0
 41
0.725476250110012
 10
821.6908168480627
 20
293.46299859245937
 30
0.0
 41
1.0
 10
822.24729498967838
 20
292.65869035983138
 30
0.0
 41
0.725476250110012
 10
823.07977677268832
 20
293.1720652093573
 30
0.0
 41
1.0
 62
4
  6
CONTINUOUS
  8
2
 60
0
  0
SPLINE
  5
DD
100
AcDbEntity
100
AcDbSpline
 70
15
 71
2
 72
20
 73
17
 74
0
 42
0.0000001
 43
0.0000001
 44
0.0
 40
0.0
 40
0.0
 40
0.0
 40
0.125
 40
0.125
 40
0.25
 40
0.25
 40
0.375
 40
0.375
 40
0.5
 40
0.5
 40
0.625
 40
0.625
 40
0.75
 40
0.75
 40
0.875
 40
0.875
 40
1.0
 40
1.0
 40
1.0
 10
826.87776834935926
 20
299.08872501201279
 30
0.0
 41
1.0
 10
831.63609010621451
 20
297.96051162906178
 30
0.0
 41
1.0
 10
836.39441186306988
 20
296.83229824611072
 30
0.0
 41
1.0
 10
837.0410197039115
 20
296.67898544869269
 30
0.0
 41
0.9187619935575495
 10
837.59727053427582
 20
297.04256697656405
 30
0.0
 41
1.0
 10
838.15352136463991
 20
297.40614850443535
 30
0.0
 41
0.9187619935575495
 10
838.27258967858302
 20
298.05992924008376
 30
0.0
 41
1.0
 10
838.39165799252601
 20
298.71370997573217
 30
0.0
 41
0.9187619935575495
 10
837.99930402990549
 20
299.25005397141604
 30
0.0
 41
1.0
 10
837.60695006728497
 20
299.78639796709996
 30
0.0
 41
0.9187619935575495
 10
836.9478087197125
 20
299.87089173971293
 30
0.0
 41
1.0
 10
832.09725415341677
 20
300.49267287373027
 30
0.0
 41
1.0
 10
827.24669958712116
 20
301.11445400774767
 30
0.0
 41
1.0
 10
826.27658867386185
 20
301.23881023455112
 30
0.0
 41
0.725476250110012
 10
826.10134633592497
 20
300.27658896157709
 30
0.0
 41
1.0
 10
825.92610399798798
 20
299.31436768860306
 30
0.0
 41
0.725476250110012
 10
826.87776834935926
 20
299.08872501201279
 30
0.0
 41
1.0
 62
4
  6
CONTINUOUS
  8
2
 60
0
  0
SPLINE
  5
DE
100
AcDbEntity
100
AcDbSpline
 70
15
 71
2
 72
32
 73
29
 74
0
 42
0.0000001
 43
0.0000001
 44
0.0
 40
0.0
 40
0.0
 40
0.0
 40
0.0714285714285714
 40
0.0714285714285714
 40
0.1428571428571429
 40
0.1428571428571429
 40
0.2142857142857143
 40
0.2142857142857143
 40
0.2857142857142857
 40
0.2857142857142857
 40
0.3571428571428572
 40
0.3571428571428572
 40
0.4285714285714286
 40
0.4285714285714286
 40
0.5
 40
0.5
 40
0.5714285714285714
 40
0.5714285714285714
 40
0.6428571428571429
 40
0.6428571428571429
 40
0.7142857142857143
 40
0.7142857142857143
 40
0.7857142857142857
 40
0.7857142857142857
 40
0.8571428571428571
 40
0.8571428571428571
 40
0.9285714285714286
 40
0.9285714285714286
 40
1.0
 40
1.0
 40
1.0
 10
821.60968460959157
 20
303.00632995298002
 30
0.0
 41
1.0
 10
822.22114154720214
 20
303.3968304926791
 30
0.0
 41
1.0
 10
822.83259848481271
 20
303.78733103237818
 30
0.0
 41
1.0
 10
824.17463974094483
 20
303.18958049193003
 30
0.0
 41
1.0
 10
825.51668099707695
 20
302.59182995148188
 30
0.0
 41
1.0
 10
825.12341472693288
 20
302.98222586011025
 30
0.0
 41
1.0
 10
824.7301484567887
 20
303.37262176873861
 30
0.0
 41
1.0
 10
824.80739068747539
 20
303.66717243798439
 30
0.0
 41
1.0
 10
824.8846329181622
 20
303.96172310723023
 30
0.0
 41
1.0
 10
825.56643298790914
 20
303.5196667467527
 30
0.0
 41
1.0
 10
826.24823305765608
 20
303.07761038627518
 30
0.0
 41
1.0
 10
826.66676969675461
 20
302.11483374059378
 30
0.0
 41
1.0
 10
827.08530633585315
 20
301.15205709491232
 30
0.0
 41
1.0
 10
827.29344761373954
 20
301.06045060948412
 30
0.0
 41
1.0
 10
827.50158889162594
 20
300.96884412405592
 30
0.0
 41
1.0
 10
828.37856569756264
 20
300.58287184690994
 30
0.0
 41
0.7071067811865476
 10
827.9925934204166
 20
299.70589504097325
 30
0.0
 41
1.0
 10
827.60662114327056
 20
298.82891823503655
 30
0.0
 41
0.7071067811865476
 10
826.72964433733387
 20
299.21489051218265
 30
0.0
 41
1.0
 10
826.50992986394067
 20
299.31159055606463
 30
0.0
 41
1.0
 10
826.29021539054747
 20
299.40829059994661
 30
0.0
 41
1.0
 10
825.42392530490656
 20
299.31432587759423
 30
0.0
 41
1.0
 10
824.55763521926576
 20
299.2203611552419
 30
0.0
 41
1.0
 10
823.18698557235211
 20
300.03171704284375
 30
0.0
 41
1.0
 10
821.81633592543835
 20
300.8430729304456
 30
0.0
 41
1.0
 10
821.53841105975312
 20
301.52799042227309
 30
0.0
 41
1.0
 10
821.26048619406788
 20
302.21290791410053
 30
0.0
 41
1.0
 10
821.43508540182972
 20
302.60961893354028
 30
0.0
 41
1.0
 10
821.60968460959157
 20
303.00632995298002
 30
0.0
 41
1.0
 62
4
  6
CONTINUOUS
  8
2
 60
0
  0
SPLINE
  5
DF
100
AcDbEntity
100
AcDbSpline
 70
15
 71
2
 72
48
 73
45
 74
0
 42
0.0000001
 43
0.0000001
 44
0.0
 40
0.0
 40
0.0
 40
0.0
 40
0.0454545454545455
 40
0.0454545454545455
 40
0.0909090909090909
 40
0.0909090909090909
 40
0.1363636363636364
 40
0.1363636363636364
 40
0.1818181818181818
 40
0.1818181818181818
 40
0.2272727272727273
 40
0.2272727272727273
 40
0.2727272727272727
 40
0.2727272727272727
 40
0.3181818181818182
 40
0.3181818181818182
 40
0.3636363636363637
 40
0.3636363636363637
 40
0.4090909090909091
 40
0.4090909090909091
 40
0.4545454545454545
 40
0.4545454545454545
 40
0.5
 40
0.5
 40
0.5454545454545454
 40
0.5454545454545454
 40
0.5909090909090909
 40
0.5909090909090909
 40
0.6363636363636364
 40
0.6363636363636364
 40
0.6818181818181818
 40
0.6818181818181818
 40
0.7272727272727273
 40
0.7272727272727273
 40
0.7727272727272727
 40
0.7727272727272727
 40
0.8181818181818182
 40
0.8181818181818182
 40
0.8636363636363637
 40
0.8636363636363637
 40
0.9090909090909091
 40
0.9090909090909091
 40
0.9545454545454546
 40
0.9545454545454546
 40
1.0
 40
1.0
 40
1.0
 10
858.17704910442558
 20
287.4468909135893
 30
0.0
 41
1.0
 10
861.0352241309638
 20
286.51876242093391
 30
0.0
 41
0.8653370150886195
 10
863.26255472845833
 20
288.536083761393
 30
0.0
 41
1.0
 10
864.47812393799211
 20
289.63704008550411
 30
0.0
 41
0.915055681501302
 10
864.48555869588063
 20
291.27705778514712
 30
0.0
 41
1.0
 10
864.49299345376915
 20
292.91707548479008
 30
0.0
 41
0.915055681501302
 10
863.28745601956575
 20
294.0290075085673
 30
0.0
 41
1.0
 10
862.03143947003366
 20
295.17416880049291
 30
0.0
 41
0.9547264438260582
 10
860.34724094096589
 20
295.40318249420812
 30
0.0
 41
1.0
 10
860.01989424147985
 20
294.83981386134928
 30
0.0
 41
1.0
 10
859.6925475419938
 20
294.27644522849039
 30
0.0
 41
1.0
 10
859.3901484024899
 20
294.78069971293587
 30
0.0
 41
1.0
 10
859.08774926298599
 20
295.28495419738141
 30
0.0
 41
1.0
 10
859.18521768044957
 20
295.122424347996
 30
0.0
 41
1.0
 10
859.28268609791326
 20
294.95989449861059
 30
0.0
 41
1.0
 10
859.40286817863216
 20
295.00751546174956
 30
0.0
 41
1.0
 10
859.52305025935095
 20
295.05513642488859
 30
0.0
 41
1.0
 10
859.68573847840344
 20
295.05655642044871
 30
0.0
 41
1.0
 10
859.84842669745603
 20
295.05797641600878
 30
0.0
 41
1.0
 10
859.97067418998824
 20
295.01173580529473
 30
0.0
 41
1.0
 10
860.09292168252045
 20
294.96549519458063
 30
0.0
 41
1.0
 10
860.21014695508939
 20
295.18567110965387
 30
0.0
 41
1.0
 10
860.32737222765843
 20
295.40584702472711
 30
0.0
 41
1.0
 10
860.03124930095544
 20
295.43873118540461
 30
0.0
 41
0.9994371359095851
 10
859.73358779650425
 20
295.45168435144961
 30
0.0
 41
1.0
 10
859.2613943106943
 20
295.84682621174142
 30
0.0
 41
1.0
 10
858.78920082488435
 20
296.24196807203322
 30
0.0
 41
1.0
 10
858.70333930819129
 20
296.33404327593018
 30
0.0
 41
0.8916876600132515
 10
858.57833522743795
 20
296.31907587747412
 30
0.0
 41
1.0
 10
858.45333114668472
 20
296.30410847901811
 30
0.0
 41
0.8916876600132515
 10
858.39163440483435
 20
296.19436534590011
 30
0.0
 41
1.0
 10
858.34008829335835
 20
295.7824686940458
 30
0.0
 41
1.0
 10
858.28854218188246
 20
295.3705720421915
 30
0.0
 41
1.0
 10
857.2910899769654
 20
295.32330076574817
 30
0.0
 41
0.9999986730267942
 10
856.29348904798871
 20
295.27927962110942
 30
0.0
 41
1.0
 10
855.08358173916281
 20
295.22589003104963
 30
0.0
 41
0.7344803682118167
 10
855.0413154927594
 20
294.0155430937246
 30
0.0
 41
1.0
 10
855.02294267184834
 20
293.37227064425934
 30
0.0
 41
1.0
 10
855.00456985093729
 20
292.72899819479409
 30
0.0
 41
1.0
 10
853.2131152194479
 20
292.79155716903517
 30
0.0
 41
0.7546810890311234
 10
852.90199609323622
 20
291.02621634889647
 30
0.0
 41
1.0
 10
852.59087696702454
 20
289.26087552875771
 30
0.0
 41
0.7546810890311234
 10
854.29578628927743
 20
288.70724431139553
 30
0.0
 41
1.0
 10
856.2364176968515
 20
288.07706761249244
 30
0.0
 41
1.0
 10
858.17704910442558
 20
287.4468909135893
 30
0.0
 41
1.0
 62
4
  6
CONTINUOUS
  8
2
 60
0
  0
SPLINE
  5
E0
100
AcDbEntity
100
AcDbSpline
 70
15
 71
2
 72
16
 73
13
 74
0
 42
0.0000001
 43
0.0000001
 44
0.0
 40
0.0
 40
0.0
 40
0.0
 40
0.1666666666666667
 40
0.1666666666666667
 40
0.3333333333333333
 40
0.3333333333333333
 40
0.5
 40
0.5
 40
0.6666666666666666
 40
0.6666666666666666
 40
0.8333333333333334
 40
0.8333333333333334
 40
1.0
 40
1.0
 40
1.0
 10
850.30673436161123
 20
292.10039334027942
 30
0.0
 41
1.0
 10
852.47619125416122
 20
292.40529062280928
 30
0.0
 41
1.0
 10
854.64564814671121
 20
292.71018790533913
 30
0.0
 41
1.0
 10
856.68748992793462
 20
292.99715005360241
 30
0.0
 41
0.7071067811865476
 10
856.97445207619808
 20
290.95530827237906
 30
0.0
 41
1.0
 10
857.26141422446153
 20
288.91346649115559
 30
0.0
 41
0.7071067811865476
 10
855.21957244323789
 20
288.62650434289219
 30
0.0
 41
1.0
 10
853.05011555068791
 20
288.32160706036234
 30
0.0
 41
1.0
 10
850.88065865813803
 20
288.01670977783249
 30
0.0
 41
1.0
 10
848.83881687691473
 20
287.72974762956915
 30
0.0
 41
0.7071067811865476
 10
848.55185472865116
 20
289.77158941079256
 30
0.0
 41
1.0
 10
848.26489258038782
 20
291.81343119201597
 30
0.0
 41
0.7071067811865476
 10
850.30673436161123
 20
292.10039334027942
 30
0.0
 41
1.0
 62
4
  6
CONTINUOUS
  8
2
 60
0
  0
SPLINE
  5
E1
100
AcDbEntity
100
AcDbSpline
 70
15
 71
2
 72
48
 73
45
 74
0
 42
0.0000001
 43
0.0000001
 44
0.0
 40
0.0
 40
0.0
 40
0.0
 40
0.0454545454545455
 40
0.0454545454545455
 40
0.0909090909090909
 40
0.0909090909090909
 40
0.1363636363636364
 40
0.1363636363636364
 40
0.1818181818181818
 40
0.1818181818181818
 40
0.2272727272727273
 40
0.2272727272727273
 40
0.2727272727272727
 40
0.2727272727272727
 40
0.3181818181818182
 40
0.3181818181818182
 40
0.3636363636363637
 40
0.3636363636363637
 40
0.4090909090909091
 40
0.4090909090909091
 40
0.4545454545454545
 40
0.4545454545454545
 40
0.5
 40
0.5
 40
0.5454545454545454
 40
0.5454545454545454
 40
0.5909090909090909
 40
0.5909090909090909
 40
0.6363636363636364
 40
0.6363636363636364
 40
0.6818181818181818
 40
0.6818181818181818
 40
0.7272727272727273
 40
0.7272727272727273
 40
0.7727272727272727
 40
0.7727272727272727
 40
0.8181818181818182
 40
0.8181818181818182
 40
0.8636363636363637
 40
0.8636363636363637
 40
0.9090909090909091
 40
0.9090909090909091
 40
0.9545454545454546
 40
0.9545454545454546
 40
1.0
 40
1.0
 40
1.0
 10
836.21973554079023
 20
317.60205009723859
 30
0.0
 41
1.0
 10
837.14786403344567
 20
320.46022512377698
 30
0.0
 41
0.8653370150886195
 10
835.13054269298664
 20
322.68755572127134
 30
0.0
 41
1.0
 10
834.02958636887536
 20
323.90312493080518
 30
0.0
 41
0.915055681501302
 10
832.3895686692324
 20
323.91055968869364
 30
0.0
 41
1.0
 10
830.74955096958945
 20
323.9179944465821
 30
0.0
 41
0.915055681501302
 10
829.63761894581216
 20
322.71245701237882
 30
0.0
 41
1.0
 10
828.49245765388662
 20
321.45644046284673
 30
0.0
 41
0.9547264438260582
 10
828.26344396017134
 20
319.77224193377901
 30
0.0
 41
1.0
 10
828.82681259303013
 20
319.44489523429291
 30
0.0
 41
1.0
 10
829.39018122588902
 20
319.11754853480682
 30
0.0
 41
1.0
 10
828.88592674144343
 20
318.81514939530302
 30
0.0
 41
1.0
 10
828.38167225699794
 20
318.51275025579918
 30
0.0
 41
1.0
 10
828.54420210638341
 20
318.61021867326281
 30
0.0
 41
1.0
 10
828.70673195576876
 20
318.70768709072649
 30
0.0
 41
1.0
 10
828.65911099262985
 20
318.82786917144529
 30
0.0
 41
1.0
 10
828.61149002949082
 20
318.94805125216402
 30
0.0
 41
1.0
 10
828.6100700339307
 20
319.11073947121656
 30
0.0
 41
1.0
 10
828.60865003837057
 20
319.2734276902691
 30
0.0
 41
1.0
 10
828.65489064908479
 20
319.39567518280137
 30
0.0
 41
1.0
 10
828.7011312597989
 20
319.51792267533358
 30
0.0
 41
1.0
 10
828.48095534472554
 20
319.63514794790251
 30
0.0
 41
1.0
 10
828.2607794296523
 20
319.7523732204715
 30
0.0
 41
1.0
 10
828.22789526897486
 20
319.45625029376839
 30
0.0
 41
0.9994371359095851
 10
828.21494210292985
 20
319.15858878931738
 30
0.0
 41
1.0
 10
827.81980024263794
 20
318.68639530350742
 30
0.0
 41
1.0
 10
827.42465838234614
 20
318.21420181769741
 30
0.0
 41
1.0
 10
827.33258317844923
 20
318.1283403010043
 30
0.0
 41
0.8916876600132515
 10
827.34755057690518
 20
318.00333622025101
 30
0.0
 41
1.0
 10
827.36251797536136
 20
317.87833213949773
 30
0.0
 41
0.8916876600132515
 10
827.4722611084793
 20
317.81663539764742
 30
0.0
 41
1.0
 10
827.88415776033355
 20
317.76508928617159
 30
0.0
 41
1.0
 10
828.2960544121878
 20
317.7135431746957
 30
0.0
 41
1.0
 10
828.34332568863124
 20
316.71609096977852
 30
0.0
 41
0.9999986730267942
 10
828.38734683326993
 20
315.71849004080173
 30
0.0
 41
1.0
 10
828.44073642332978
 20
314.50858273197599
 30
0.0
 41
0.7344803682118167
 10
829.65108336065475
 20
314.46631648557258
 30
0.0
 41
1.0
 10
830.29435581012012
 20
314.44794366466158
 30
0.0
 41
1.0
 10
830.93762825958538
 20
314.42957084375053
 30
0.0
 41
1.0
 10
830.87506928534424
 20
312.6381162122612
 30
0.0
 41
0.7546810890311234
 10
832.64041010548294
 20
312.32699708604946
 30
0.0
 41
1.0
 10
834.40575092562153
 20
312.01587795983767
 30
0.0
 41
0.7546810890311234
 10
834.95938214298383
 20
313.7207872820905
 30
0.0
 41
1.0
 10
835.58955884188708
 20
315.66141868966452
 30
0.0
 41
1.0
 10
836.21973554079023
 20
317.60205009723859
 30
0.0
 41
1.0
 62
4
  6
CONTINUOUS
  8
2
 60
0
  0
SPLINE
  5
E2
100
AcDbEntity
100
AcDbSpline
 70
15
 71
2
 72
48
 73
45
 74
0
 42
0.0000001
 43
0.0000001
 44
0.0
 40
0.0
 40
0.0
 40
0.0
 40
0.0454545454545455
 40
0.0454545454545455
 40
0.0909090909090909
 40
0.0909090909090909
 40
0.1363636363636364
 40
0.1363636363636364
 40
0.1818181818181818
 40
0.1818181818181818
 40
0.2272727272727273
 40
0.2272727272727273
 40
0.2727272727272727
 40
0.2727272727272727
 40
0.3181818181818182
 40
0.3181818181818182
 40
0.3636363636363637
 40
0.3636363636363637
 40
0.4090909090909091
 40
0.4090909090909091
 40
0.4545454545454545
 40
0.4545454545454545
 40
0.5
 40
0.5
 40
0.5454545454545454
 40
0.5454545454545454
 40
0.5909090909090909
 40
0.5909090909090909
 40
0.6363636363636364
 40
0.6363636363636364
 40
0.6818181818181818
 40
0.6818181818181818
 40
0.7272727272727273
 40
0.7272727272727273
 40
0.7727272727272727
 40
0.7727272727272727
 40
0.8181818181818182
 40
0.8181818181818182
 40
0.8636363636363637
 40
0.8636363636363637
 40
0.9090909090909091
 40
0.9090909090909091
 40
0.9545454545454546
 40
0.9545454545454546
 40
1.0
 40
1.0
 40
1.0
 10
853.44373027730148
 20
307.07197904108227
 30
0.0
 41
1.0
 10
856.12105117135366
 20
308.43672803319652
 30
0.0
 41
0.8653370150886195
 10
856.26955014111525
 20
311.43815020229988
 30
0.0
 41
1.0
 10
856.35059368960901
 20
313.076181115932
 30
0.0
 41
0.915055681501302
 10
855.19618322064503
 20
314.24110592033492
 30
0.0
 41
1.0
 10
854.04177275168104
 20
315.40603072473783
 30
0.0
 41
0.915055681501302
 10
852.40307438275022
 20
315.33984170426987
 30
0.0
 41
1.0
 10
850.70518524822057
 20
315.26145519988614
 30
0.0
 41
0.9547264438260582
 10
849.35233991164171
 20
314.23248413492848
 30
0.0
 41
1.0
 10
849.51923262123842
 20
313.60265328332059
 30
0.0
 41
1.0
 10
849.68612533083501
 20
312.9728224317127
 30
0.0
 41
1.0
 10
849.11573508327183
 20
313.11555571493977
 30
0.0
 41
1.0
 10
848.54534483570853
 20
313.25828899816679
 30
0.0
 41
1.0
 10
848.72919137329427
 20
313.21228361846119
 30
0.0
 41
1.0
 10
848.91303791088001
 20
313.16627823875558
 30
0.0
 41
1.0
 10
848.96434636917115
 20
313.2849329089712
 30
0.0
 41
1.0
 10
849.01565482746219
 20
313.40358757918682
 30
0.0
 41
1.0
 10
849.12968868188364
 20
313.5196296105878
 30
0.0
 41
1.0
 10
849.24372253630509
 20
313.63567164198878
 30
0.0
 41
1.0
 10
849.36286161665987
 20
313.68941662353927
 30
0.0
 41
1.0
 10
849.48200069701466
 20
313.74316160508971
 30
0.0
 41
1.0
 10
849.40920359957227
 20
313.98174027285188
 30
0.0
 41
1.0
 10
849.33640650212988
 20
314.22031894061411
 30
0.0
 41
1.0
 10
849.1037633595846
 20
314.03418102408625
 30
0.0
 41
0.9994371359095851
 10
848.88412561974098
 20
313.832861827339
 30
0.0
 41
1.0
 10
848.27082691494957
 20
313.7783781004336
 30
0.0
 41
1.0
 10
847.65752821015826
 20
313.7238943735282
 30
0.0
 41
1.0
 10
847.53170794840685
 20
313.72828811388621
 30
0.0
 41
0.8916876600132515
 10
847.45390026417522
 20
313.62931333176459
 30
0.0
 41
1.0
 10
847.37609257994359
 20
313.53033854964298
 30
0.0
 41
0.8916876600132515
 10
847.41006650902045
 20
313.4091122514871
 30
0.0
 41
1.0
 10
847.66487281972627
 20
313.08140873084449
 30
0.0
 41
1.0
 10
847.91967913043209
 20
312.75370521020187
 30
0.0
 41
1.0
 10
847.2477997525541
 20
312.01497415206705
 30
0.0
 41
0.9999986730267942
 10
846.57351702064625
 20
311.27843612037998
 30
0.0
 41
1.0
 10
845.75573549914441
 20
310.38515031652594
 30
0.0
 41
0.7344803682118167
 10
846.58169327666826
 20
309.49941904010802
 30
0.0
 41
1.0
 10
847.0235640415799
 20
309.03156518268497
 30
0.0
 41
1.0
 10
847.46543480649154
 20
308.56371132526192
 30
0.0
 41
1.0
 10
846.15444921346739
 20
307.34119748205774
 30
0.0
 41
0.7546810890311234
 10
847.18273923459174
 20
305.87291857313107
 30
0.0
 41
1.0
 10
848.21102925571586
 20
304.40463966420447
 30
0.0
 41
0.7546810890311234
 10
849.80805858686267
 20
305.21871621920423
 30
0.0
 41
1.0
 10
851.62589443208208
 20
306.14534763014319
 30
0.0
 41
1.0
 10
853.44373027730148
 20
307.07197904108227
 30
0.0
 41
1.0
 62
4
  6
CONTINUOUS
  8
2
 60
0
  0
SPLINE
  5
E3
100
AcDbEntity
100
AcDbSpline
 70
15
 71
2
 72
16
 73
13
 74
0
 42
0.0000001
 43
0.0000001
 44
0.0
 40
0.0
 40
0.0
 40
0.0
 40
0.1666666666666667
 40
0.1666666666666667
 40
0.3333333333333333
 40
0.3333333333333333
 40
0.5
 40
0.5
 40
0.6666666666666666
 40
0.6666666666666666
 40
0.8333333333333334
 40
0.8333333333333334
 40
1.0
 40
1.0
 40
1.0
 10
831.56623311409999
 20
309.7317353544243
 30
0.0
 41
1.0
 10
831.26133583157014
 20
311.90119224697423
 30
0.0
 41
1.0
 10
830.95643854904029
 20
314.07064913952422
 30
0.0
 41
1.0
 10
830.66947640077706
 20
316.11249092074775
 30
0.0
 41
0.7071067811865476
 10
832.71131818200047
 20
316.39945306901114
 30
0.0
 41
1.0
 10
834.75315996322399
 20
316.68641521727454
 30
0.0
 41
0.7071067811865476
 10
835.04012211148734
 20
314.64457343605102
 30
0.0
 41
1.0
 10
835.34501939401707
 20
312.47511654350103
 30
0.0
 41
1.0
 10
835.64991667654704
 20
310.3056596509511
 30
0.0
 41
1.0
 10
835.93687882481049
 20
308.26381786972763
 30
0.0
 41
0.7071067811865476
 10
833.89503704358685
 20
307.97685572146418
 30
0.0
 41
1.0
 10
831.85319526236356
 20
307.68989357320083
 30
0.0
 41
0.7071067811865476
 10
831.56623311409999
 20
309.7317353544243
 30
0.0
 41
1.0
 62
4
  6
CONTINUOUS
  8
2
 60
0
  0
SPLINE
  5
E4
100
AcDbEntity
100
AcDbSpline
 70
15
 71
2
 72
24
 73
21
 74
0
 42
0.0000001
 43
0.0000001
 44
0.0
 40
0.0
 40
0.0
 40
0.0
 40
0.1
 40
0.1
 40
0.2
 40
0.2
 40
0.3
 40
0.3
 40
0.4
 40
0.4
 40
0.5
 40
0.5
 40
0.6
 40
0.6
 40
0.7
 40
0.7
 40
0.8
 40
0.8
 40
0.9
 40
0.9
 40
1.0
 40
1.0
 40
1.0
 10
741.82836930188205
 20
272.46563368701209
 30
0.0
 41
1.0
 10
742.17073608600833
 20
275.63667280355565
 30
0.0
 41
1.0
 10
742.51310287013462
 20
278.80771192009922
 30
0.0
 41
1.0
 10
743.12789479404762
 20
281.77952286835159
 30
0.0
 41
1.0
 10
743.74268671796062
 20
284.75133381660402
 30
0.0
 41
1.0
 10
743.98579336832086
 20
287.00301456814492
 30
0.0
 41
1.0
 10
744.22890001868109
 20
289.25469531968582
 30
0.0
 41
1.0
 10
744.4494711213174
 20
291.29764932944425
 30
0.0
 41
0.7511149843213183
 10
742.45172357925844
 20
291.778604062765
 30
0.0
 41
1.0
 10
740.45397603719937
 20
292.2595587960858
 30
0.0
 41
0.7511149843213183
 10
739.72059337160488
 20
290.34006340325152
 30
0.0
 41
1.0
 10
738.84717294656821
 20
288.05404471135017
 30
0.0
 41
1.0
 10
737.97375252153142
 20
285.76802601944883
 30
0.0
 41
1.0
 10
737.75759009481385
 20
283.76590565488834
 30
0.0
 41
1.0
 10
737.54142766809616
 20
281.76378529032792
 30
0.0
 41
1.0
 10
737.94160875316857
 20
277.30292681344849
 30
0.0
 41
1.0
 10
738.34178983824086
 20
272.84206833656913
 30
0.0
 41
1.0
 10
738.15357251346234
 20
271.09877860474853
 30
0.0
 41
0.7071067811865476
 10
739.89686224528293
 20
270.91056127997001
 30
0.0
 41
1.0
 10
741.64015197710341
 20
270.72234395519149
 30
0.0
 41
0.7071067811865476
 10
741.82836930188205
 20
272.46563368701209
 30
0.0
 41
1.0
 62
4
  6
CONTINUOUS
  8
2
 60
0
  0
SPLINE
  5
E5
100
AcDbEntity
100
AcDbSpline
 70
15
 71
2
 72
22
 73
19
 74
0
 42
0.0000001
 43
0.0000001
 44
0.0
 40
0.0
 40
0.0
 40
0.0
 40
0.1111111111111111
 40
0.1111111111111111
 40
0.2222222222222222
 40
0.2222222222222222
 40
0.3333333333333333
 40
0.3333333333333333
 40
0.4444444444444444
 40
0.4444444444444444
 40
0.5555555555555556
 40
0.5555555555555556
 40
0.6666666666666666
 40
0.6666666666666666
 40
0.7777777777777778
 40
0.7777777777777778
 40
0.8888888888888888
 40
0.8888888888888888
 40
1.0
 40
1.0
 40
1.0
 10
736.03708408072589
 20
304.38423508357431
 30
0.0
 41
1.0
 10
736.11004651713688
 20
306.54817574096961
 30
0.0
 41
1.0
 10
736.18300895354776
 20
308.71211639836491
 30
0.0
 41
1.0
 10
736.52611607662766
 20
309.41535510274662
 30
0.0
 41
1.0
 10
736.86922319970768
 20
310.11859380712838
 30
0.0
 41
1.0
 10
738.34796232751387
 20
313.14944486910059
 30
0.0
 41
0.7741102651710601
 10
741.61202615676007
 20
312.30173331050889
 30
0.0
 41
1.0
 10
744.87608998600626
 20
311.4540217519172
 30
0.0
 41
0.7741102651710601
 10
744.69314114727865
 20
308.08664038201391
 30
0.0
 41
1.0
 10
744.76794485226935
 20
298.89998125147275
 30
0.0
 41
1.0
 10
744.84274855726005
 20
289.71332212093159
 30
0.0
 41
1.0
 10
745.05041892546797
 20
286.77508727325829
 30
0.0
 41
0.7071067811865487
 10
742.11218407779461
 20
286.56741690505044
 30
0.0
 41
1.0
 10
739.17394923012137
 20
286.35974653684258
 30
0.0
 41
0.7071067811865487
 10
738.96627886191345
 20
289.29798138451588
 30
0.0
 41
1.0
 10
738.59267425112125
 20
292.09087907366597
 30
0.0
 41
1.0
 10
738.21906964032905
 20
294.88377676281613
 30
0.0
 41
1.0
 10
737.12807686052747
 20
299.63400592319522
 30
0.0
 41
1.0
 10
736.03708408072589
 20
304.38423508357431
 30
0.0
 41
1.0
 62
4
  6
CONTINUOUS
  8
2
 60
0
  0
SPLINE
  5
E6
100
AcDbEntity
100
AcDbSpline
 70
15
 71
2
 72
24
 73
21
 74
0
 42
0.0000001
 43
0.0000001
 44
0.0
 40
0.0
 40
0.0
 40
0.0
 40
0.1
 40
0.1
 40
0.2
 40
0.2
 40
0.3
 40
0.3
 40
0.4
 40
0.4
 40
0.5
 40
0.5
 40
0.6
 40
0.6
 40
0.7
 40
0.7
 40
0.8
 40
0.8
 40
0.9
 40
0.9
 40
1.0
 40
1.0
 40
1.0
 10
744.28314348406093
 20
267.69650839168071
 30
0.0
 41
1.0
 10
741.19264300303917
 20
267.69650839168071
 30
0.0
 41
1.0
 10
738.1021425220174
 20
267.69650839168071
 30
0.0
 41
1.0
 10
738.1021425220174
 20
268.19224265369166
 30
0.0
 41
1.0
 10
738.1021425220174
 20
268.68797691570262
 30
0.0
 41
1.0
 10
738.41117690712963
 20
270.96625559262156
 30
0.0
 41
1.0
 10
738.72021129224186
 20
273.24453426954051
 30
0.0
 41
1.0
 10
739.05225938921978
 20
274.01178458234267
 30
0.0
 41
0.8717087086379249
 10
739.88031716220303
 20
274.12689021123924
 30
0.0
 41
1.0
 10
740.70837493518638
 20
274.24199584013581
 30
0.0
 41
0.8717087086379249
 10
741.23709644630515
 20
273.59439832247381
 30
0.0
 41
1.0
 10
742.13263796357569
 20
272.51849058915354
 30
0.0
 41
1.0
 10
743.02817948084612
 20
271.44258285583328
 30
0.0
 41
1.0
 10
744.99278362102314
 20
270.86228836362341
 30
0.0
 41
1.0
 10
746.95738776120015
 20
270.28199387141359
 30
0.0
 41
1.0
 10
747.70664590613956
 20
269.43462692136336
 30
0.0
 41
1.0
 10
748.45590405107885
 20
268.58725997131319
 30
0.0
 41
1.0
 10
748.45590405107885
 20
268.14188418149695
 30
0.0
 41
1.0
 10
748.45590405107885
 20
267.69650839168071
 30
0.0
 41
1.0
 10
746.36952376756994
 20
267.69650839168071
 30
0.0
 41
1.0
 10
744.28314348406093
 20
267.69650839168071
 30
0.0
 41
1.0
 62
4
  6
CONTINUOUS
  8
2
 60
0
  0
SPLINE
  5
E7
100
AcDbEntity
100
AcDbSpline
 70
15
 71
2
 72
16
 73
13
 74
0
 42
0.0000001
 43
0.0000001
 44
0.0
 40
0.0
 40
0.0
 40
0.0
 40
0.1666666666666667
 40
0.1666666666666667
 40
0.3333333333333333
 40
0.3333333333333333
 40
0.5
 40
0.5
 40
0.6666666666666666
 40
0.6666666666666666
 40
0.8333333333333334
 40
0.8333333333333334
 40
1.0
 40
1.0
 40
1.0
 10
741.13000296973985
 20
326.49627640866117
 30
0.0
 41
1.0
 10
741.4349002522697
 20
328.66573330121116
 30
0.0
 41
1.0
 10
741.73979753479944
 20
330.83519019376121
 30
0.0
 41
1.0
 10
742.02675968306255
 20
332.87703197498462
 30
0.0
 41
0.7071067811865476
 10
739.98491790183937
 20
333.1639941232479
 30
0.0
 41
1.0
 10
737.94307612061596
 20
333.4509562715113
 30
0.0
 41
0.7071067811865476
 10
737.65611397235261
 20
331.40911449028795
 30
0.0
 41
1.0
 10
737.35121668982276
 20
329.23965759773796
 30
0.0
 41
1.0
 10
737.04631940729291
 20
327.07020070518797
 30
0.0
 41
1.0
 10
736.75935725902957
 20
325.02835892396445
 30
0.0
 41
0.7071067811865476
 10
738.8011990402531
 20
324.74139677570111
 30
0.0
 41
1.0
 10
740.84304082147639
 20
324.45443462743776
 30
0.0
 41
0.7071067811865476
 10
741.13000296973985
 20
326.49627640866117
 30
0.0
 41
1.0
 62
4
  6
CONTINUOUS
  8
2
 60
0
  0
SPLINE
  5
E8
100
AcDbEntity
100
AcDbSpline
 70
15
 71
2
 72
26
 73
23
 74
0
 42
0.0000001
 43
0.0000001
 44
0.0
 40
0.0
 40
0.0
 40
0.0
 40
0.0909090909090909
 40
0.0909090909090909
 40
0.1818181818181818
 40
0.1818181818181818
 40
0.2727272727272727
 40
0.2727272727272727
 40
0.3636363636363637
 40
0.3636363636363637
 40
0.4545454545454545
 40
0.4545454545454545
 40
0.5454545454545454
 40
0.5454545454545454
 40
0.6363636363636364
 40
0.6363636363636364
 40
0.7272727272727273
 40
0.7272727272727273
 40
0.8181818181818182
 40
0.8181818181818182
 40
0.9090909090909091
 40
0.9090909090909091
 40
1.0
 40
1.0
 40
1.0
 10
744.46162182985699
 20
305.77648350244772
 30
0.0
 41
1.0
 10
742.25385928141986
 20
302.39043799326208
 30
0.0
 41
0.7539574394381543
 10
738.59744479434426
 20
304.11385110661058
 30
0.0
 41
1.0
 10
734.94103030726865
 20
305.83726421995908
 30
0.0
 41
0.7539574394381543
 10
736.14763994336624
 20
309.6951927893644
 30
0.0
 41
1.0
 10
736.44229225244192
 20
312.26644932401189
 30
0.0
 41
1.0
 10
736.73694456151759
 20
314.83770585865932
 30
0.0
 41
1.0
 10
736.70015031429989
 20
315.8913552413419
 30
0.0
 41
1.0
 10
736.66335606708208
 20
316.94500462402442
 30
0.0
 41
1.0
 10
736.06832261650686
 20
319.21420468153474
 30
0.0
 41
1.0
 10
735.47328916593165
 20
321.48340473904511
 30
0.0
 41
1.0
 10
735.42448344720049
 20
322.88101766228829
 30
0.0
 41
1.0
 10
735.37567772846933
 20
324.27863058553152
 30
0.0
 41
1.0
 10
736.2776838767511
 20
326.55102664000549
 30
0.0
 41
1.0
 10
737.17969002503287
 20
328.82342269447952
 30
0.0
 41
1.0
 10
739.24886165977136
 20
328.89567976017508
 30
0.0
 41
1.0
 10
741.31803329450975
 20
328.96793682587071
 30
0.0
 41
1.0
 10
742.7312932149141
 20
326.68035942468623
 30
0.0
 41
1.0
 10
744.14455313531835
 20
324.39278202350181
 30
0.0
 41
1.0
 10
744.58997724516848
 20
320.66373941223236
 30
0.0
 41
1.0
 10
745.03540135501862
 20
316.93469680096291
 30
0.0
 41
1.0
 10
744.74851159243781
 20
311.35559015170531
 30
0.0
 41
1.0
 10
744.46162182985699
 20
305.77648350244772
 30
0.0
 41
1.0
 62
4
  6
CONTINUOUS
  8
2
 60
0
  0
SPLINE
  5
E9
100
AcDbEntity
100
AcDbSpline
 70
15
 71
2
 72
16
 73
13
 74
0
 42
0.0000001
 43
0.0000001
 44
0.0
 40
0.0
 40
0.0
 40
0.0
 40
0.1666666666666667
 40
0.1666666666666667
 40
0.3333333333333333
 40
0.3333333333333333
 40
0.5
 40
0.5
 40
0.6666666666666666
 40
0.6666666666666666
 40
0.8333333333333334
 40
0.8333333333333334
 40
1.0
 40
1.0
 40
1.0
 10
740.61812774350892
 20
315.95588157395008
 30
0.0
 41
1.0
 10
738.8629907016682
 20
321.08239842719843
 30
0.0
 41
1.0
 10
737.10785365982736
 20
326.20891528044672
 30
0.0
 41
1.0
 10
736.53353038334944
 20
328.18922280913557
 30
0.0
 41
0.7071067811865476
 10
738.5138379120383
 20
328.76354608561348
 30
0.0
 41
1.0
 10
740.49414544072704
 20
329.33786936209145
 30
0.0
 41
0.7071067811865476
 10
741.06846871720506
 20
327.3575618334026
 30
0.0
 41
1.0
 10
742.32852887687363
 20
322.08746416103486
 30
0.0
 41
1.0
 10
743.58858903654209
 20
316.81736648866712
 30
0.0
 41
1.0
 10
744.01933149390072
 20
315.33213584215054
 30
0.0
 41
0.7071067811865476
 10
742.53410084738402
 20
314.90139338479196
 30
0.0
 41
1.0
 10
741.04887020086744
 20
314.4706509274335
 30
0.0
 41
0.7071067811865476
 10
740.61812774350892
 20
315.95588157395008
 30
0.0
 41
1.0
 62
4
  6
CONTINUOUS
  8
2
 60
0
  0
SPLINE
  5
EA
100
AcDbEntity
100
AcDbSpline
 70
15
 71
2
 72
32
 73
29
 74
0
 42
0.0000001
 43
0.0000001
 44
0.0
 40
0.0
 40
0.0
 40
0.0
 40
0.0714285714285714
 40
0.0714285714285714
 40
0.1428571428571429
 40
0.1428571428571429
 40
0.2142857142857143
 40
0.2142857142857143
 40
0.2857142857142857
 40
0.2857142857142857
 40
0.3571428571428572
 40
0.3571428571428572
 40
0.4285714285714286
 40
0.4285714285714286
 40
0.5
 40
0.5
 40
0.5714285714285714
 40
0.5714285714285714
 40
0.6428571428571429
 40
0.6428571428571429
 40
0.7142857142857143
 40
0.7142857142857143
 40
0.7857142857142857
 40
0.7857142857142857
 40
0.8571428571428571
 40
0.8571428571428571
 40
0.9285714285714286
 40
0.9285714285714286
 40
1.0
 40
1.0
 40
1.0
 10
756.11172206716742
 20
308.9816735471137
 30
0.0
 41
1.0
 10
755.95548229985764
 20
309.69016447377987
 30
0.0
 41
1.0
 10
755.79924253254785
 20
310.3986554004461
 30
0.0
 41
1.0
 10
754.42760259909596
 20
310.92494841268046
 30
0.0
 41
1.0
 10
753.05596266564396
 20
311.45124142491483
 30
0.0
 41
1.0
 10
753.61009550641336
 20
311.44921177282254
 30
0.0
 41
1.0
 10
754.16422834718276
 20
311.4471821207303
 30
0.0
 41
1.0
 10
754.31788861769701
 20
311.71007940146961
 30
0.0
 41
1.0
 10
754.47154888821115
 20
311.97297668220892
 30
0.0
 41
1.0
 10
753.67686238531928
 20
312.14250108478018
 30
0.0
 41
1.0
 10
752.88217588242742
 20
312.31202548735138
 30
0.0
 41
1.0
 10
751.90543989181663
 20
311.92718968810357
 30
0.0
 41
1.0
 10
750.92870390120584
 20
311.54235388885581
 30
0.0
 41
1.0
 10
750.71675022512045
 20
311.62475643084724
 30
0.0
 41
1.0
 10
750.50479654903506
 20
311.70715897283861
 30
0.0
 41
1.0
 10
749.61175668809403
 20
312.05435160473968
 30
0.0
 41
0.7071067811865476
 10
749.26456405619297
 20
311.16131174379865
 30
0.0
 41
1.0
 10
748.91737142429179
 20
310.26827188285745
 30
0.0
 41
0.7071067811865476
 10
749.81041128523293
 20
309.92107925095632
 30
0.0
 41
1.0
 10
750.034150136064
 20
309.83409491366513
 30
0.0
 41
1.0
 10
750.25788898689495
 20
309.74711057637398
 30
0.0
 41
1.0
 10
750.80400548855869
 20
309.06810788997495
 30
0.0
 41
1.0
 10
751.35012199022253
 20
308.38910520357598
 30
0.0
 41
1.0
 10
752.89303290026498
 20
307.99362479369131
 30
0.0
 41
1.0
 10
754.43594381030744
 20
307.59814438380658
 30
0.0
 41
1.0
 10
755.11677617051839
 20
307.88593162964469
 30
0.0
 41
1.0
 10
755.79760853072935
 20
308.17371887548279
 30
0.0
 41
1.0
 10
755.95466529894838
 20
308.57769621129825
 30
0.0
 41
1.0
 10
756.11172206716742
 20
308.9816735471137
 30
0.0
 41
1.0
 62
4
  6
CONTINUOUS
  8
2
 60
0
  0
SPLINE
  5
EB
100
AcDbEntity
100
AcDbSpline
 70
15
 71
2
 72
20
 73
17
 74
0
 42
0.0000001
 43
0.0000001
 44
0.0
 40
0.0
 40
0.0
 40
0.0
 40
0.125
 40
0.125
 40
0.25
 40
0.25
 40
0.375
 40
0.375
 40
0.5
 40
0.5
 40
0.625
 40
0.625
 40
0.75
 40
0.75
 40
0.875
 40
0.875
 40
1.0
 40
1.0
 40
1.0
 10
749.61645931115129
 20
309.93660626359417
 30
0.0
 41
1.0
 10
745.45405039610137
 20
312.50348051122398
 30
0.0
 41
1.0
 10
741.29164148105133
 20
315.0703547588538
 30
0.0
 41
1.0
 10
740.72601217332681
 20
315.41916702918439
 30
0.0
 41
0.9187619935575495
 10
740.5897744030076
 20
316.06958672724761
 30
0.0
 41
1.0
 10
740.4535366326885
 20
316.72000642531083
 30
0.0
 41
0.9187619935575495
 10
740.83163541206113
 20
317.26649322911044
 30
0.0
 41
1.0
 10
741.20973419143365
 20
317.81298003291005
 30
0.0
 41
0.9187619935575495
 10
741.86642281542481
 20
317.91479636171243
 30
0.0
 41
1.0
 10
742.52311143941586
 20
318.01661269051488
 30
0.0
 41
0.9187619935575495
 10
743.04894087562752
 20
317.61027549346852
 30
0.0
 41
1.0
 10
746.91846655824816
 20
314.620081123403
 30
0.0
 41
1.0
 10
750.78799224086879
 20
311.62988675333747
 30
0.0
 41
1.0
 10
751.56189737739305
 20
311.03184787932423
 30
0.0
 41
0.725476250110012
 10
751.00541923577725
 20
310.22753964669619
 30
0.0
 41
1.0
 10
750.44894109416146
 20
309.42323141406808
 30
0.0
 41
0.725476250110012
 10
749.61645931115129
 20
309.93660626359417
 30
0.0
 41
1.0
 62
4
  6
CONTINUOUS
  8
2
 60
0
  0
SPLINE
  5
EC
100
AcDbEntity
100
AcDbSpline
 70
15
 71
2
 72
48
 73
45
 74
0
 42
0.0000001
 43
0.0000001
 44
0.0
 40
0.0
 40
0.0
 40
0.0
 40
0.0454545454545455
 40
0.0454545454545455
 40
0.0909090909090909
 40
0.0909090909090909
 40
0.1363636363636364
 40
0.1363636363636364
 40
0.1818181818181818
 40
0.1818181818181818
 40
0.2272727272727273
 40
0.2272727272727273
 40
0.2727272727272727
 40
0.2727272727272727
 40
0.3181818181818182
 40
0.3181818181818182
 40
0.3636363636363637
 40
0.3636363636363637
 40
0.4090909090909091
 40
0.4090909090909091
 40
0.4545454545454545
 40
0.4545454545454545
 40
0.5
 40
0.5
 40
0.5454545454545454
 40
0.5454545454545454
 40
0.5909090909090909
 40
0.5909090909090909
 40
0.6363636363636364
 40
0.6363636363636364
 40
0.6818181818181818
 40
0.6818181818181818
 40
0.7272727272727273
 40
0.7272727272727273
 40
0.7727272727272727
 40
0.7727272727272727
 40
0.8181818181818182
 40
0.8181818181818182
 40
0.8636363636363637
 40
0.8636363636363637
 40
0.9090909090909091
 40
0.9090909090909091
 40
0.9545454545454546
 40
0.9545454545454546
 40
1.0
 40
1.0
 40
1.0
 10
736.4765005430495
 20
334.36659115147557
 30
0.0
 41
1.0
 10
735.54837205039405
 20
337.22476617801391
 30
0.0
 41
0.8653370150886195
 10
737.5656933908532
 20
339.45209677550821
 30
0.0
 41
1.0
 10
738.66664971496436
 20
340.66766598504211
 30
0.0
 41
0.915055681501302
 10
740.30666741460743
 20
340.67510074293057
 30
0.0
 41
1.0
 10
741.94668511425039
 20
340.68253550081897
 30
0.0
 41
0.915055681501302
 10
743.05861713802767
 20
339.47699806661558
 30
0.0
 41
1.0
 10
744.2037784299531
 20
338.22098151708349
 30
0.0
 41
0.9547264438260582
 10
744.43279212366826
 20
336.53678298801589
 30
0.0
 41
1.0
 10
743.8694234908096
 20
336.20943628852979
 30
0.0
 41
1.0
 10
743.30605485795081
 20
335.88208958904369
 30
0.0
 41
1.0
 10
743.81030934239629
 20
335.5796904495399
 30
0.0
 41
1.0
 10
744.31456382684178
 20
335.27729131003611
 30
0.0
 41
1.0
 10
744.15203397745643
 20
335.37475972749974
 30
0.0
 41
1.0
 10
743.98950412807108
 20
335.47222814496342
 30
0.0
 41
1.0
 10
744.0371250912101
 20
335.59241022568222
 30
0.0
 41
1.0
 10
744.08474605434913
 20
335.71259230640101
 30
0.0
 41
1.0
 10
744.08616604990914
 20
335.87528052545349
 30
0.0
 41
1.0
 10
744.08758604546915
 20
336.03796874450597
 30
0.0
 41
1.0
 10
744.04134543475504
 20
336.1602162370383
 30
0.0
 41
1.0
 10
743.99510482404094
 20
336.28246372957062
 30
0.0
 41
1.0
 10
744.21528073911418
 20
336.39968900213955
 30
0.0
 41
1.0
 10
744.43545665418742
 20
336.51691427470848
 30
0.0
 41
1.0
 10
744.46834081486486
 20
336.22079134800538
 30
0.0
 41
0.9994371359095851
 10
744.48129398090975
 20
335.92312984355431
 30
0.0
 41
1.0
 10
744.87643584120178
 20
335.45093635774435
 30
0.0
 41
1.0
 10
745.2715777014937
 20
334.9787428719344
 30
0.0
 41
1.0
 10
745.36365290539061
 20
334.89288135524117
 30
0.0
 41
0.8916876600132515
 10
745.34868550693454
 20
334.76787727448789
 30
0.0
 41
1.0
 10
745.33371810847837
 20
334.6428731937346
 30
0.0
 41
0.8916876600132515
 10
745.22397497536019
 20
334.5811764518844
 30
0.0
 41
1.0
 10
744.81207832350606
 20
334.52963034040852
 30
0.0
 41
1.0
 10
744.40018167165181
 20
334.47808422893257
 30
0.0
 41
1.0
 10
744.35291039520848
 20
333.48063202401545
 30
0.0
 41
0.9999986730267942
 10
744.30888925056968
 20
332.48303109503865
 30
0.0
 41
1.0
 10
744.25549966050994
 20
331.27312378621281
 30
0.0
 41
0.7344803682118167
 10
743.04515272318486
 20
331.23085753980951
 30
0.0
 41
1.0
 10
742.4018802737196
 20
331.21248471889845
 30
0.0
 41
1.0
 10
741.75860782425434
 20
331.1941118979874
 30
0.0
 41
1.0
 10
741.8211667984956
 20
329.40265726649818
 30
0.0
 41
0.7546810890311234
 10
740.05582597835689
 20
329.09153814028639
 30
0.0
 41
1.0
 10
738.2904851582183
 20
328.78041901407465
 30
0.0
 41
0.7546810890311234
 10
737.73685394085601
 20
330.48532833632748
 30
0.0
 41
1.0
 10
737.10667724195275
 20
332.42595974390156
 30
0.0
 41
1.0
 10
736.4765005430495
 20
334.36659115147557
 30
0.0
 41
1.0
 62
4
  6
CONTINUOUS
  8
2
 60
0
  0
TEXT
  5
ED
100
AcDbEntity
100
AcDbText
  1
48Q 
  7
ugtxt
 10
579.49144218382855
 20
288.78770370122811
 30
0.0
 11
590.51041533633349
 21
288.78770370122811
 31
0.0
 40
2.0
 41
1.502587248068862
 50
0.0
 51
0.0
 72
0
210
0.0
220
0.0
230
1.0
100
AcDbText
 62
7
  6
CONTINUOUS
  8
_ACTIVE1
 60
0
  0
TEXT
  5
EE
100
AcDbEntity
100
AcDbText
  1
COOLER 
  7
ugtxt
 10
579.49144218382855
 20
285.78770370122811
 30
0.0
 11
598.92464520071223
 21
285.78770370122811
 31
0.0
 40
2.0
 41
1.4574902262662794
 50
0.0
 51
0.0
 72
0
210
0.0
220
0.0
230
1.0
100
AcDbText
 62
7
  6
CONTINUOUS
  8
_ACTIVE1
 60
0
  0
TEXT
  5
EF
100
AcDbEntity
100
AcDbText
  1
5 GAL 
  7
ugtxt
 10
629.04558222916921
 20
284.92561786167607
 30
0.0
 11
629.04558222916921
 21
291.76663727915184
 31
0.0
 40
1.0
 41
1.2072387207310211
 50
89.999999999999986
 51
0.0
 72
0
210
0.0
220
0.0
230
1.0
100
AcDbText
 62
7
  6
CONTINUOUS
  8
_ACTIVE1
 60
0
  0
TEXT
  5
F0
100
AcDbEntity
100
AcDbText
  1
WATER 
  7
ugtxt
 10
630.54558222916921
 20
284.92561786167607
 30
0.0
 11
630.54558222916921
 21
291.76663727915184
 31
0.0
 40
1.0
 41
1.1401699029126311
 50
89.999999999999986
 51
0.0
 72
0
210
0.0
220
0.0
230
1.0
100
AcDbText
 62
7
  6
CONTINUOUS
  8
_ACTIVE1
 60
0
  0
TEXT
  5
F1
100
AcDbEntity
100
AcDbText
  1
JUG 
  7
ugtxt
 10
632.04558222916921
 20
286.08186786167607
 30
0.0
 11
632.04558222916921
 21
290.60921413999324
 31
0.0
 40
1.0
 41
1.2347308031774158
 50
89.999999999999986
 51
0.0
 72
0
210
0.0
220
0.0
230
1.0
100
AcDbText
 62
7
  6
CONTINUOUS
  8
_ACTIVE1
 60
0
  0
TEXT
  5
F2
100
AcDbEntity
100
AcDbText
  1
CAMP CHEF STOVE 
  7
ugtxt
 10
577.70282369103666
 20
301.33668330687459
 30
0.0
 11
601.63972272949798
 21
301.33668330687459
 31
0.0
 40
1.0
 41
1.4960561899038336
 50
0.0
 51
0.0
 72
0
210
0.0
220
0.0
230
1.0
100
AcDbText
 62
7
  6
CONTINUOUS
  8
_ACTIVE1
 60
0
  0
TEXT
  5
F3
100
AcDbEntity
100
AcDbText
  1
COPYRIGHT 2004 BRIAN BURTON 
  7
ugtxt
 10
872.45036242523008
 20
254.41093445307979
 30
0.0
 11
1112.5201897751881
 21
254.41093445307979
 31
0.0
 40
1.0
 41
9.0026185256234204
 50
0.0
 51
0.0
 72
0
210
0.0
220
0.0
230
1.0
100
AcDbText
 62
7
  6
CONTINUOUS
  8
_ACTIVE1
 60
0
  0
VIEWPORT
  5
F4
100
AcDbEntity
100
AcDbViewport
  8
0
 67
1
 68
1
 10
6.0
 20
4.5
 30
0.0
 40
12.0
 41
9.0
 69
1
1001
ACAD
1000
MVIEW
1002
{
1070
16
1010
0.0
1020
0.0
1030
0.0
1010
0.0
1020
0.0
1030
1.0
1040
0.0
1040
9.0
1040
6.0
1040
4.5
1040
50.0
1040
0.0
1040
0.0
1070
0
1070
100
1070
1
1070
1
1070
0
1070
0
1070
0
1070
0
1040
0.0
1040
0.0
1040
0.0
1040
1.0
1040
1.0
1040
0.0
1040
0.0
1070
0
1002
{
1002
}
1002
}
  0
VIEWPORT
  5
F5
100
AcDbEntity
100
AcDbViewport
  8
0
 67
1
 68
2
 10
6.0
 20
4.5
 30
0.0
 40
12.0
 41
9.0
 69
2
1001
ACAD
1000
MVIEW
1002
{
1070
16
1010
0.0
1020
0.0
1030
0.0
1010
0.0
1020
0.0
1030
1.0
1040
0.0
1040
1.0
1040
820.26349695804629
1040
304.18952194624984
1040
4.1930993607687022
1040
0.0
1040
0.0
1070
16
1070
100
1070
1
1070
0
1070
0
1070
0
1070
0
1070
0
1040
0.0
1040
0.0
1040
0.0
1040
1.0
1040
1.0
1040
0.0
1040
0.0
1070
0
1002
{
1003
_ACTIVE1
1002
}
1002
}
  0
ENDSEC
  0
SECTION
  2
OBJECTS
  0
DICTIONARY
  5
F6
100
AcDbDictionary
  3
ACAD_GROUP
350
F7
  3
ACAD_MLINESTYLE
350
F8
  0
DICTIONARY
  5
F7
102
{ACAD_REACTORS
330
F6
102
}
100
AcDbDictionary
  0
DICTIONARY
  5
F8
102
{ACAD_REACTORS
330
F6
102
}
100
AcDbDictionary
  3
STANDARD
350
F9
  0
MLINESTYLE
  5
F9
102
{ACAD_REACTORS
330
F8
102
}
100
AcDbMlineStyle
  2
STANDARD
 70
0
  3

 62
0
 51
90.0
 52
90.0
 71
2
 49
0.5
 62
256
  6
BYLAYER
 49
-0.5
 62
256
  6
BYLAYER
  0
ENDSEC
  0
EOF
