  0
SECTION
  2
HEADER
  9
$ACADVER
  1
AC1015
  9
$ACADMAINTVER
 70
     6
  9
$DWGCODEPAGE
  3
ANSI_1252
  9
$INSBASE
 10
0.0
 20
0.0
 30
0.0
  9
$EXTMIN
 10
-0.5
 20
-0.5
 30
-0.5
  9
$EXTMAX
 10
5.0
 20
5.0
 30
5.0
  9
$LIMMIN
 10
-0.5
 20
-0.5
  9
$LIMMAX
 10
5.0
 20
5.0
  9
$ORTHOMODE
 70
     0
  9
$REGENMODE
 70
     1
  9
$FILLMODE
 70
     1
  9
$QTEXTMODE
 70
     0
  9
$MIRRTEXT
 70
     1
  9
$LTSCALE
 40
1.0
  9
$ATTMODE
 70
     1
  9
$TEXTSIZE
 40
0.2
  9
$TRACEWID
 40
0.05
  9
$TEXTSTYLE
  7
Standard
  9
$CLAYER
  8
0
  9
$CELTYPE
  6
Continuous
  9
$CECOLOR
 62
   256
  9
$CELTSCALE
 40
1.0
  9
$DISPSILH
 70
     0
  9
$DIMSCALE
 40
1.0
  9
$DIMASZ
 40
0.18
  9
$DIMEXO
 40
0.0625
  9
$DIMDLI
 40
0.38
  9
$DIMRND
 40
0.0
  9
$DIMDLE
 40
0.0
  9
$DIMEXE
 40
0.18
  9
$DIMTP
 40
0.0
  9
$DIMTM
 40
0.0
  9
$DIMTXT
 40
0.18
  9
$DIMCEN
 40
0.09
  9
$DIMTSZ
 40
0.0
  9
$DIMTOL
 70
     0
  9
$DIMLIM
 70
     0
  9
$DIMTIH
 70
     1
  9
$DIMTOH
 70
     1
  9
$DIMSE1
 70
     0
  9
$DIMSE2
 70
     0
  9
$DIMTAD
 70
     0
  9
$DIMZIN
 70
     0
  9
$DIMBLK
  1

  9
$DIMASO
 70
     1
  9
$DIMSHO
 70
     1
  9
$DIMPOST
  1

  9
$DIMAPOST
  1

  9
$DIMALT
 70
     0
  9
$DIMALTD
 70
     2
  9
$DIMALTF
 40
25.4
  9
$DIMLFAC
 40
1.0
  9
$DIMTOFL
 70
     0
  9
$DIMTVP
 40
0.0
  9
$DIMTIX
 70
     0
  9
$DIMSOXD
 70
     0
  9
$DIMSAH
 70
     0
  9
$DIMBLK1
  1

  9
$DIMBLK2
  1

  9
$DIMSTYLE
  2
Standard
  9
$DIMCLRD
 70
     0
  9
$DIMCLRE
 70
     0
  9
$DIMCLRT
 70
     0
  9
$DIMTFAC
 40
1.0
  9
$DIMGAP
 40
0.09
  9
$DIMJUST
 70
     0
  9
$DIMSD1
 70
     0
  9
$DIMSD2
 70
     0
  9
$DIMTOLJ
 70
     1
  9
$DIMTZIN
 70
     0
  9
$DIMALTZ
 70
     0
  9
$DIMALTTZ
 70
     0
  9
$DIMUPT
 70
     0
  9
$DIMDEC
 70
     4
  9
$DIMTDEC
 70
     4
  9
$DIMALTU
 70
     2
  9
$DIMALTTD
 70
     2
  9
$DIMTXSTY
  7
Standard
  9
$DIMAUNIT
 70
     0
  9
$DIMADEC
 70
     0
  9
$DIMALTRND
 40
0.0
  9
$DIMAZIN
 70
     0
  9
$DIMDSEP
 70
     0
  9
$DIMATFIT
 70
     3
  9
$DIMFRAC
 70
     0
  9
$DIMLDRBLK
  1

  9
$DIMLUNIT
 70
     2
  9
$DIMLWD
 70
     0
  9
$DIMLWE
 70
     0
  9
$DIMTMOVE
 70
     0
  9
$LUNITS
 70
     2
  9
$LUPREC
 70
     4
  9
$SKETCHINC
 40
0.1
  9
$FILLETRAD
 40
0.0
  9
$AUNITS
 70
     0
  9
$AUPREC
 70
     0
  9
$MENU
  1
acad
  9
$ELEVATION
 40
0.0
  9
$PELEVATION
 40
0.0
  9
$THICKNESS
 40
0.0
  9
$LIMCHECK
 70
     0
  9
$CHAMFERA
 40
0.0
  9
$CHAMFERB
 40
0.0
  9
$CHAMFERC
 40
0.0
  9
$CHAMFERD
 40
0.0
  9
$SKPOLY
 70
     0
  9
$TDCREATE
 40
0.000000000
  9
$TDUCREATE
 40
0.000000000
  9
$TDUPDATE
 40
0.000000000
  9
$TDUUPDATE
 40
0.000000000
  9
$TDINDWG
 40
0.0000000000
  9
$TDUSRTIMER
 40
0.0000000000
  9
$USRTIMER
 70
     1
  9
$ANGBASE
 50
0.0
  9
$ANGDIR
 70
     0
  9
$PDMODE
 70
     0
  9
$PDSIZE
 40
0.0
  9
$PLINEWID
 40
0.0
  9
$SPLFRAME
 70
     0
  9
$SPLINETYPE
 70
     6
  9
$SPLINESEGS
 70
     8
  9
$HANDSEED
  5
104
  9
$SURFTAB1
 70
     6
  9
$SURFTAB2
 70
     6
  9
$SURFTYPE
 70
     6
  9
$SURFU
 70
     6
  9
$SURFV
 70
     6
  9
$UCSBASE
  2

  9
$UCSNAME
  2

  9
$UCSORG
 10
0.0
 20
0.0
 30
0.0
  9
$UCSXDIR
 10
1.0
 20
0.0
 30
0.0
  9
$UCSYDIR
 10
0.0
 20
1.0
 30
0.0
  9
$UCSORTHOREF
  2

  9
$UCSORTHOVIEW
 70
     0
  9
$UCSORGTOP
 10
0.0
 20
0.0
 30
0.0
  9
$UCSORGBOTTOM
 10
0.0
 20
0.0
 30
0.0
  9
$UCSORGLEFT
 10
0.0
 20
0.0
 30
0.0
  9
$UCSORGRIGHT
 10
0.0
 20
0.0
 30
0.0
  9
$UCSORGFRONT
 10
0.0
 20
0.0
 30
0.0
  9
$UCSORGBACK
 10
0.0
 20
0.0
 30
0.0
  9
$PUCSBASE
  2

  9
$PUCSNAME
  2

  9
$PUCSORG
 10
0.0
 20
0.0
 30
0.0
  9
$PUCSXDIR
 10
1.0
 20
0.0
 30
0.0
  9
$PUCSYDIR
 10
0.0
 20
1.0
 30
0.0
  9
$PUCSORTHOREF
  2

  9
$PUCSORTHOVIEW
 70
     0
  9
$PUCSORGTOP
 10
0.0
 20
0.0
 30
0.0
  9
$PUCSORGBOTTOM
 10
0.0
 20
0.0
 30
0.0
  9
$PUCSORGLEFT
 10
0.0
 20
0.0
 30
0.0
  9
$PUCSORGRIGHT
 10
0.0
 20
0.0
 30
0.0
  9
$PUCSORGFRONT
 10
0.0
 20
0.0
 30
0.0
  9
$PUCSORGBACK
 10
0.0
 20
0.0
 30
0.0
  9
$USERI1
 70
     0
  9
$USERI2
 70
     0
  9
$USERI3
 70
     0
  9
$USERI4
 70
     0
  9
$USERI5
 70
     0
  9
$USERR1
 40
0.0
  9
$USERR2
 40
0.0
  9
$USERR3
 40
0.0
  9
$USERR4
 40
0.0
  9
$USERR5
 40
0.0
  9
$WORLDVIEW
 70
     1
  9
$SHADEDGE
 70
     3
  9
$SHADEDIF
 70
    70
  9
$TILEMODE
 70
     0
  9
$MAXACTVP
 70
    16
  9
$PINSBASE
 10
0.0
 20
0.0
 30
0.0
  9
$PLIMCHECK
 70
     0
  9
$PEXTMIN
 10
-0.5
 20
-0.5
 30
-0.5
  9
$PEXTMAX
 10
5.0
 20
5.0
 30
5.0
  9
$PLIMMIN
 10
-0.5
 20
-0.5
  9
$PLIMMAX
 10
5.0
 20
5.0
  9
$UNITMODE
 70
     0
  9
$VISRETAIN
 70
     0
  9
$PLINEGEN
 70
     1
  9
$PSLTSCALE
 70
     0
  9
$TREEDEPTH
 70
  3020
  9
$CMLSTYLE
  2
Standard
  9
$CMLJUST
 70
     0
  9
$CMLSCALE
 40
1.0
  9
$PROXYGRAPHICS
 70
     0
  9
$MEASUREMENT
 70
     0
  9
$CELWEIGHT
370
     0
  9
$ENDCAPS
280
     0
  9
$JOINSTYLE
280
     0
  9
$LWDISPLAY
290
     0
  9
$INSUNITS
 70
     0
  9
$HYPERLINKBASE
  1

  9
$STYLESHEET
  1

  9
$XEDIT
290
     1
  9
$CEPSNTYPE
380
     0
  9
$PSTYLEMODE
290
     1
  9
$FINGERPRINTGUID
  2

  9
$VERSIONGUID
  2

  9
$EXTNAMES
290
     1
  9
$PSVPSCALE
 40
0.0
  0
ENDSEC
  0
SECTION
  2
CLASSES
  0
CLASS
  1
LWPOLYLINE
  2
AcDbPolyline
  3
AutoCAD 2000
 90
        0
280
     0
281
     1
  0
CLASS
  1
IMAGE
  2
AcDbRasterImage
  3
ISM
 90
      127
280
     0
281
     1
  0
CLASS
  1
OLE2FRAME
  2
AcDbOle2Frame
  3
AutoCAD 2000
 90
        0
280
     0
281
     1
  0
CLASS
  1
HATCH
  2
AcDbHatch
  3
AutoCAD 2000
 90
        0
280
     0
281
     1
  0
CLASS
  1
DICTIONARYVAR
  2
AcDbDictionaryVar
  3
AutoCAD 2000
 90
        0
280
     0
281
     0
  0
CLASS
  1
RASTERVARIABLES
  2
AcDbRasterVariables
  3
ISM
 90
        0
280
     0
281
     0
  0
CLASS
  1
IMAGEDEF
  2
AcDbRasterImageDef
  3
ISM
 90
        0
280
     0
281
     0
  0
CLASS
  1
IMAGEDEF_REACTOR
  2
AcDbRasterImageDefReactor
  3
ISM
 90
        1
280
     0
281
     0
  0
CLASS
  1
IDBUFFER
  2
AcDbIdBuffer
  3
AutoCAD 2000
 90
        0
280
     0
281
     0
  0
CLASS
  1
SPATIAL_FILTER
  2
AcDbSpatialFilter
  3
AutoCAD 2000
 90
        0
280
     0
281
     0
  0
CLASS
  1
XRECORD
  2
AcDbXrecord
  3
AutoCAD 2000
 90
        0
280
     0
281
     0
  0
CLASS
  1
SORTENTSTABLE
  2
AcDbSortentsTable
  3
AutoCAD 2000
 90
        0
280
     0
281
     0
  0
CLASS
  1
LAYER_INDEX
  2
AcDbLayerIndex
  3
AutoCAD 2000
 90
        0
280
     0
281
     0
  0
CLASS
  1
SPATIAL_INDEX
  2
AcDbSpatialIndex
  3
AutoCAD 2000
 90
        0
280
     0
281
     0
  0
CLASS
  1
OBJECT_PTR
  2
CAseDLPNTableRecord
  3
"ASE-LPNTableRecord"
 90
        1
280
     0
281
     0
  0
CLASS
  1
LAYOUT
  2
AcDbLayout
  3
AutoCAD 2000
 90
        0
280
     0
281
     0
  0
CLASS
  1
PLOTSETTINGS
  2
AcDbPlotSettings
  3
AutoCAD 2000
 90
        0
280
     0
281
     0
  0
CLASS
  1
ACDBDICTIONARYWDFLT
  2
AcDbDictionaryWithDefault
  3
AutoCAD 2000
 90
        0
280
     0
281
     0
  0
CLASS
  1
ACDBPLACEHOLDER
  2
AcDbPlaceHolder
  3
AutoCAD 2000
 90
        0
280
     0
281
     0
  0
CLASS
  1
VBA_PROJECT
  2
AcDbVbaProject
  3
acadvba
 90
        0
280
     0
281
     0
  0
CLASS
  1
WIPEOUT
  2
AcDbWipeout
  3
WipeOut|AutoCAD Express Tool|expresstools@autodesk.com
 90
      127
280
     0
281
     1
  0
CLASS
  1
WIPEOUTVARIABLES
  2
AcDbWipeoutVariables
  3
WipeOut|AutoCAD Express Tool|expresstools@autodesk.com
 90
        0
280
     0
281
     0
  0
CLASS
  1
RTEXT
  2
RText
  3
RText|AutoCAD Express Tool|expresstools@autodesk.com
 90
        0
280
     0
281
     1
  0
CLASS
  1
ARCALIGNEDTEXT
  2
AcDbArcAlignedText
  3
ATEXT|AutoCAD Express Tool|expresstools@autodesk.com
 90
        0
280
     0
281
     1
  0
ENDSEC
  0
SECTION
  2
TABLES
  0
TABLE
  2
VPORT
  5
7
100
AcDbSymbolTable
 70
    16
  0
VPORT
  5
F4
100
AcDbSymbolTableRecord
100
AcDbViewportTableRecord
  2
*ACTIVE
 70
     0
 10
0.0
 20
0.0
 11
1.0
 21
1.0
 12
0.0
 22
0.0
 13
0.0
 23
0.0
 14
1.0
 24
1.0
 15
0.0
 25
0.0
 16
0.718873
 26
-0.585049
 36
0.375419
 17
0.0
 27
0.0
 37
0.0
 40
60.350731
 41
0.688564
 42
50.0
 43
29.887703
 44
-29.887703
 50
0.0
 51
0.0
 71
    16
 72
   100
 73
     1
 74
     1
 75
     0
 76
     0
 77
     0
 78
     0
281
     0
 65
     0
110
0.0
120
0.0
130
0.0
111
1.0
121
0.0
131
0.0
112
0.0
122
1.0
132
0.0
345
0
346
0
 79
     0
146
0.0
  0
VPORT
  5
F5
100
AcDbSymbolTableRecord
100
AcDbViewportTableRecord
  2
L1
 70
     0
 10
0.0
 20
0.0
 11
1.0
 21
1.0
 12
0.0
 22
0.0
 13
0.0
 23
0.0
 14
1.0
 24
1.0
 15
0.0
 25
0.0
 16
0.718873
 26
-0.585049
 36
0.375419
 17
0.0
 27
0.0
 37
0.0
 40
60.350731
 41
0.688564
 42
50.0
 43
29.887703
 44
-29.887703
 50
0.0
 51
0.0
 71
    16
 72
   100
 73
     1
 74
     1
 75
     0
 76
     0
 77
     0
 78
     0
281
     0
 65
     0
110
0.0
120
0.0
130
0.0
111
1.0
121
0.0
131
0.0
112
0.0
122
1.0
132
0.0
345
0
346
0
 79
     0
146
0.0
  0
VPORT
  5
F6
100
AcDbSymbolTableRecord
100
AcDbViewportTableRecord
  2
L2
 70
     0
 10
0.0
 20
0.0
 11
0.5
 21
1.0
 12
0.0
 22
0.0
 13
0.0
 23
0.0
 14
1.0
 24
1.0
 15
0.0
 25
0.0
 16
0.0
 26
-1.0
 36
0.0
 17
0.0
 27
0.0
 37
0.0
 40
58.317469
 41
0.688564
 42
50.0
 43
29.951516
 44
-29.951516
 50
0.0
 51
0.0
 71
    16
 72
   100
 73
     1
 74
     1
 75
     0
 76
     0
 77
     0
 78
     0
281
     0
 65
     0
110
0.0
120
0.0
130
0.0
111
1.0
121
0.0
131
0.0
112
0.0
122
1.0
132
0.0
345
0
346
0
 79
     0
146
0.0
  0
VPORT
  5
F7
100
AcDbSymbolTableRecord
100
AcDbViewportTableRecord
  2
L2
 70
     0
 10
0.5
 20
0.0
 11
1.0
 21
1.0
 12
0.0
 22
0.0
 13
0.0
 23
0.0
 14
1.0
 24
1.0
 15
0.0
 25
0.0
 16
1.0
 26
0.0
 36
0.0
 17
0.0
 27
0.0
 37
0.0
 40
58.317469
 41
0.688564
 42
50.0
 43
29.564102
 44
-29.564102
 50
0.0
 51
0.0
 71
    16
 72
   100
 73
     1
 74
     1
 75
     0
 76
     0
 77
     0
 78
     0
281
     0
 65
     0
110
0.0
120
0.0
130
0.0
111
1.0
121
0.0
131
0.0
112
0.0
122
1.0
132
0.0
345
0
346
0
 79
     0
146
0.0
  0
VPORT
  5
F8
100
AcDbSymbolTableRecord
100
AcDbViewportTableRecord
  2
L3
 70
     0
 10
0.0
 20
0.5
 11
1.0
 21
1.0
 12
0.0
 22
0.0
 13
0.0
 23
0.0
 14
1.0
 24
1.0
 15
0.0
 25
0.0
 16
0.0
 26
0.0
 36
1.0
 17
0.0
 27
0.0
 37
0.0
 40
9.757936
 41
0.688564
 42
50.0
 43
29.158734
 44
-29.158734
 50
0.0
 51
0.0
 71
    16
 72
   100
 73
     1
 74
     1
 75
     0
 76
     0
 77
     0
 78
     0
281
     0
 65
     0
110
0.0
120
0.0
130
0.0
111
1.0
121
0.0
131
0.0
112
0.0
122
1.0
132
0.0
345
0
346
0
 79
     0
146
0.0
  0
VPORT
  5
F9
100
AcDbSymbolTableRecord
100
AcDbViewportTableRecord
  2
L3
 70
     0
 10
0.0
 20
0.0
 11
1.0
 21
0.5
 12
0.0
 22
0.0
 13
0.0
 23
0.0
 14
1.0
 24
1.0
 15
0.0
 25
0.0
 16
0.0
 26
-1.0
 36
0.0
 17
0.0
 27
0.0
 37
0.0
 40
58.317469
 41
0.688564
 42
50.0
 43
29.951516
 44
-29.951516
 50
0.0
 51
0.0
 71
    16
 72
   100
 73
     1
 74
     1
 75
     0
 76
     0
 77
     0
 78
     0
281
     0
 65
     0
110
0.0
120
0.0
130
0.0
111
1.0
121
0.0
131
0.0
112
0.0
122
1.0
132
0.0
345
0
346
0
 79
     0
146
0.0
  0
VPORT
  5
FA
100
AcDbSymbolTableRecord
100
AcDbViewportTableRecord
  2
L4
 70
     0
 10
0.0
 20
0.5
 11
0.5
 21
1.0
 12
0.0
 22
0.0
 13
0.0
 23
0.0
 14
1.0
 24
1.0
 15
0.0
 25
0.0
 16
0.0
 26
0.0
 36
1.0
 17
0.0
 27
0.0
 37
0.0
 40
9.757936
 41
0.688564
 42
50.0
 43
29.158734
 44
-29.158734
 50
0.0
 51
0.0
 71
    16
 72
   100
 73
     1
 74
     1
 75
     0
 76
     0
 77
     0
 78
     0
281
     0
 65
     0
110
0.0
120
0.0
130
0.0
111
1.0
121
0.0
131
0.0
112
0.0
122
1.0
132
0.0
345
0
346
0
 79
     0
146
0.0
  0
VPORT
  5
FB
100
AcDbSymbolTableRecord
100
AcDbViewportTableRecord
  2
L4
 70
     0
 10
0.0
 20
0.0
 11
0.5
 21
0.5
 12
0.0
 22
0.0
 13
0.0
 23
0.0
 14
1.0
 24
1.0
 15
0.0
 25
0.0
 16
0.0
 26
-1.0
 36
0.0
 17
0.0
 27
0.0
 37
0.0
 40
58.317469
 41
0.688564
 42
50.0
 43
29.951516
 44
-29.951516
 50
0.0
 51
0.0
 71
    16
 72
   100
 73
     1
 74
     1
 75
     0
 76
     0
 77
     0
 78
     0
281
     0
 65
     0
110
0.0
120
0.0
130
0.0
111
1.0
121
0.0
131
0.0
112
0.0
122
1.0
132
0.0
345
0
346
0
 79
     0
146
0.0
  0
VPORT
  5
FC
100
AcDbSymbolTableRecord
100
AcDbViewportTableRecord
  2
L4
 70
     0
 10
0.5
 20
0.0
 11
1.0
 21
0.5
 12
0.0
 22
0.0
 13
0.0
 23
0.0
 14
1.0
 24
1.0
 15
0.0
 25
0.0
 16
1.0
 26
0.0
 36
0.0
 17
0.0
 27
0.0
 37
0.0
 40
58.317469
 41
0.688564
 42
50.0
 43
29.564102
 44
-29.564102
 50
0.0
 51
0.0
 71
    16
 72
   100
 73
     1
 74
     1
 75
     0
 76
     0
 77
     0
 78
     0
281
     0
 65
     0
110
0.0
120
0.0
130
0.0
111
1.0
121
0.0
131
0.0
112
0.0
122
1.0
132
0.0
345
0
346
0
 79
     0
146
0.0
  0
VPORT
  5
FD
100
AcDbSymbolTableRecord
100
AcDbViewportTableRecord
  2
L4
 70
     0
 10
0.5
 20
0.5
 11
1.0
 21
1.0
 12
0.0
 22
0.0
 13
0.0
 23
0.0
 14
1.0
 24
1.0
 15
0.0
 25
0.0
 16
0.57735
 26
-0.57735
 36
0.57735
 17
0.0
 27
0.0
 37
0.0
 40
57.189042
 41
0.688564
 42
50.0
 43
29.772114
 44
-29.772114
 50
0.0
 51
0.0
 71
    16
 72
   100
 73
     1
 74
     1
 75
     0
 76
     0
 77
     0
 78
     0
281
     0
 65
     0
110
0.0
120
0.0
130
0.0
111
1.0
121
0.0
131
0.0
112
0.0
122
1.0
132
0.0
345
0
346
0
 79
     0
146
0.0
  0
VPORT
  5
FE
100
AcDbSymbolTableRecord
100
AcDbViewportTableRecord
  2
L6
 70
     0
 10
0.0
 20
0.5
 11
0.333333
 21
1.0
 12
0.0
 22
0.0
 13
0.0
 23
0.0
 14
1.0
 24
1.0
 15
0.0
 25
0.0
 16
0.718873
 26
-0.585049
 36
0.375419
 17
0.0
 27
0.0
 37
0.0
 40
60.350731
 41
0.688564
 42
50.0
 43
29.887703
 44
-29.887703
 50
0.0
 51
0.0
 71
    16
 72
   100
 73
     1
 74
     1
 75
     0
 76
     0
 77
     0
 78
     0
281
     0
 65
     0
110
0.0
120
0.0
130
0.0
111
1.0
121
0.0
131
0.0
112
0.0
122
1.0
132
0.0
345
0
346
0
 79
     0
146
0.0
  0
VPORT
  5
FF
100
AcDbSymbolTableRecord
100
AcDbViewportTableRecord
  2
L6
 70
     0
 10
0.0
 20
0.0
 11
0.333333
 21
0.5
 12
0.0
 22
0.0
 13
0.0
 23
0.0
 14
1.0
 24
1.0
 15
0.0
 25
0.0
 16
-1.0
 26
0.0
 36
0.0
 17
0.0
 27
0.0
 37
0.0
 40
58.317469
 41
0.688564
 42
50.0
 43
29.564102
 44
-29.564102
 50
0.0
 51
0.0
 71
    16
 72
   100
 73
     1
 74
     1
 75
     0
 76
     0
 77
     0
 78
     0
281
     0
 65
     0
110
0.0
120
0.0
130
0.0
111
1.0
121
0.0
131
0.0
112
0.0
122
1.0
132
0.0
345
0
346
0
 79
     0
146
0.0
  0
VPORT
  5
100
100
AcDbSymbolTableRecord
100
AcDbViewportTableRecord
  2
L6
 70
     0
 10
0.333333
 20
0.5
 11
0.666667
 21
1.0
 12
0.0
 22
0.0
 13
0.0
 23
0.0
 14
1.0
 24
1.0
 15
0.0
 25
0.0
 16
0.0
 26
0.0
 36
1.0
 17
0.0
 27
0.0
 37
0.0
 40
9.757936
 41
0.688564
 42
50.0
 43
29.158734
 44
-29.158734
 50
0.0
 51
0.0
 71
    16
 72
   100
 73
     1
 74
     1
 75
     0
 76
     0
 77
     0
 78
     0
281
     0
 65
     0
110
0.0
120
0.0
130
0.0
111
1.0
121
0.0
131
0.0
112
0.0
122
1.0
132
0.0
345
0
346
0
 79
     0
146
0.0
  0
VPORT
  5
101
100
AcDbSymbolTableRecord
100
AcDbViewportTableRecord
  2
L6
 70
     0
 10
0.333333
 20
0.0
 11
0.666667
 21
0.5
 12
0.0
 22
0.0
 13
0.0
 23
0.0
 14
1.0
 24
1.0
 15
0.0
 25
0.0
 16
0.0
 26
-1.0
 36
0.0
 17
0.0
 27
0.0
 37
0.0
 40
58.317469
 41
0.688564
 42
50.0
 43
29.951516
 44
-29.951516
 50
0.0
 51
0.0
 71
    16
 72
   100
 73
     1
 74
     1
 75
     0
 76
     0
 77
     0
 78
     0
281
     0
 65
     0
110
0.0
120
0.0
130
0.0
111
1.0
121
0.0
131
0.0
112
0.0
122
1.0
132
0.0
345
0
346
0
 79
     0
146
0.0
  0
VPORT
  5
102
100
AcDbSymbolTableRecord
100
AcDbViewportTableRecord
  2
L6
 70
     0
 10
0.666667
 20
0.5
 11
1.0
 21
1.0
 12
0.0
 22
0.0
 13
0.0
 23
0.0
 14
1.0
 24
1.0
 15
0.0
 25
0.0
 16
0.57735
 26
-0.57735
 36
0.57735
 17
0.0
 27
0.0
 37
0.0
 40
57.189042
 41
0.688564
 42
50.0
 43
29.772114
 44
-29.772114
 50
0.0
 51
0.0
 71
    16
 72
   100
 73
     1
 74
     1
 75
     0
 76
     0
 77
     0
 78
     0
281
     0
 65
     0
110
0.0
120
0.0
130
0.0
111
1.0
121
0.0
131
0.0
112
0.0
122
1.0
132
0.0
345
0
346
0
 79
     0
146
0.0
  0
VPORT
  5
103
100
AcDbSymbolTableRecord
100
AcDbViewportTableRecord
  2
L6
 70
     0
 10
0.666667
 20
0.0
 11
1.0
 21
0.5
 12
0.0
 22
0.0
 13
0.0
 23
0.0
 14
1.0
 24
1.0
 15
0.0
 25
0.0
 16
1.0
 26
0.0
 36
0.0
 17
0.0
 27
0.0
 37
0.0
 40
58.317469
 41
0.688564
 42
50.0
 43
29.564102
 44
-29.564102
 50
0.0
 51
0.0
 71
    16
 72
   100
 73
     1
 74
     1
 75
     0
 76
     0
 77
     0
 78
     0
281
     0
 65
     0
110
0.0
120
0.0
130
0.0
111
1.0
121
0.0
131
0.0
112
0.0
122
1.0
132
0.0
345
0
346
0
 79
     0
146
0.0
  0
ENDTAB
  0
TABLE
  2
LTYPE
  5
4
100
AcDbSymbolTable
 70
     9
  0
LTYPE
  5
11
100
AcDbSymbolTableRecord
100
AcDbLinetypeTableRecord
  2
ByBlock
 70
    64
  3

 72
    65
 73
     0
 40
0.0
  0
LTYPE
  5
12
100
AcDbSymbolTableRecord
100
AcDbLinetypeTableRecord
  2
ByLayer
 70
    64
  3

 72
    65
 73
     0
 40
0.0
  0
LTYPE
  5
13
100
AcDbSymbolTableRecord
100
AcDbLinetypeTableRecord
  2
Continuous
 70
    64
  3
Solid line
 72
    65
 73
     0
 40
0.0
  0
LTYPE
  5
24
100
AcDbSymbolTableRecord
100
AcDbLinetypeTableRecord
  2
DASHED
 70
    64
  3
__ __ __ __ __ __ __ __ __
 72
    65
 73
     2
 40
0.75
 49
0.5
 74
     0
 49
-0.25
 74
     0
  0
LTYPE
  5
25
100
AcDbSymbolTableRecord
100
AcDbLinetypeTableRecord
  2
HIDDEN
 70
    64
  3
_ _ _ _ _ _ _ _ _ _ _ _ _ _ _
 72
    65
 73
     2
 40
0.5
 49
0.25
 74
     0
 49
-0.25
 74
     0
  0
LTYPE
  5
26
100
AcDbSymbolTableRecord
100
AcDbLinetypeTableRecord
  2
PHANTOM
 70
    64
  3
____ _ _ ____ _ _ _____ _ _ ____
 72
    65
 73
     6
 40
2.5
 49
1.25
 74
     0
 49
-0.25
 74
     0
 49
0.25
 74
     0
 49
-0.25
 74
     0
 49
0.25
 74
     0
 49
-0.25
 74
     0
  0
LTYPE
  5
27
100
AcDbSymbolTableRecord
100
AcDbLinetypeTableRecord
  2
CENTER
 70
    64
  3
____ _ ____ _ ____ _ ____
 72
    65
 73
     4
 40
2.0
 49
1.25
 74
     0
 49
-0.25
 74
     0
 49
0.25
 74
     0
 49
-0.25
 74
     0
  0
LTYPE
  5
28
100
AcDbSymbolTableRecord
100
AcDbLinetypeTableRecord
  2
DOT
 70
    64
  3
.........................
 72
    65
 73
     2
 40
0.25
 49
0.0
 74
     0
 49
-0.25
 74
     0
  0
LTYPE
  5
29
100
AcDbSymbolTableRecord
100
AcDbLinetypeTableRecord
  2
DASHDOT
 70
    64
  3
_._._._._._._._._._._._._._._._.
 72
    65
 73
     4
 40
1.0
 49
0.5
 74
     0
 49
-0.25
 74
     0
 49
0.0
 74
     0
 49
-0.25
 74
     0
  0
ENDTAB
  0
TABLE
  2
LAYER
  5
2
100
AcDbSymbolTable
 70
     2
  0
LAYER
  5
14
100
AcDbSymbolTableRecord
100
AcDbLayerTableRecord
  2
0
 70
     0
 62
     7
  6
Continuous
290
     1
370
    -3
390
1D
  0
LAYER
  5
2B
100
AcDbSymbolTableRecord
100
AcDbLayerTableRecord
  2
97
 70
     0
 62
     7
  6
Continuous
290
     1
370
    -3
390
1D
  0
ENDTAB
  0
TABLE
  2
STYLE
  5
3
100
AcDbSymbolTable
 70
     1
  0
STYLE
  5
17
100
AcDbSymbolTableRecord
100
AcDbTextStyleTableRecord
  2
Standard
 70
     0
 40
0.0
 41
1.0
 50
0.0
 71
     0
 42
0.0
  3
txt
  4

  0
ENDTAB
  0
TABLE
  2
VIEW
  5
5
100
AcDbSymbolTable
 70
     8
  0
VIEW
  5
EC
100
AcDbSymbolTableRecord
100
AcDbViewTableRecord
  2
TOP
 70
     0
 40
9.757936
 10
0.0
 20
0.0
 41
13.691099
 11
0.0
 21
0.0
 31
1.0
 12
0.0
 22
0.0
 32
0.0
 42
50.0
 43
29.158734
 44
-29.158734
 50
0.0
 71
    16
281
     0
 72
     0
110
0.0
120
0.0
130
0.0
111
1.0
121
0.0
131
0.0
112
0.0
122
1.0
132
0.0
  0
VIEW
  5
ED
100
AcDbSymbolTableRecord
100
AcDbViewTableRecord
  2
FRONT
 70
     0
 40
58.317469
 10
0.0
 20
0.0
 41
13.691099
 11
0.0
 21
-1.0
 31
0.0
 12
0.0
 22
0.0
 32
0.0
 42
50.0
 43
29.951516
 44
-29.951516
 50
0.0
 71
    16
281
     0
 72
     0
110
0.0
120
0.0
130
0.0
111
1.0
121
0.0
131
0.0
112
0.0
122
1.0
132
0.0
  0
VIEW
  5
EE
100
AcDbSymbolTableRecord
100
AcDbViewTableRecord
  2
RIGHT
 70
     0
 40
58.317469
 10
0.0
 20
0.0
 41
9.757936
 11
1.0
 21
0.0
 31
0.0
 12
0.0
 22
0.0
 32
0.0
 42
50.0
 43
29.564102
 44
-29.564102
 50
0.0
 71
    16
281
     0
 72
     0
110
0.0
120
0.0
130
0.0
111
1.0
121
0.0
131
0.0
112
0.0
122
1.0
132
0.0
  0
VIEW
  5
EF
100
AcDbSymbolTableRecord
100
AcDbViewTableRecord
  2
BACK
 70
     0
 40
58.317469
 10
0.0
 20
0.0
 41
13.691099
 11
0.0
 21
1.0
 31
0.0
 12
0.0
 22
0.0
 32
0.0
 42
50.0
 43
29.951516
 44
-29.951516
 50
0.0
 71
    16
281
     0
 72
     0
110
0.0
120
0.0
130
0.0
111
1.0
121
0.0
131
0.0
112
0.0
122
1.0
132
0.0
  0
VIEW
  5
F0
100
AcDbSymbolTableRecord
100
AcDbViewTableRecord
  2
BOTTOM
 70
     0
 40
9.757936
 10
0.0
 20
0.0
 41
13.691099
 11
0.0
 21
0.0
 31
-1.0
 12
0.0
 22
0.0
 32
0.0
 42
50.0
 43
29.158734
 44
-29.158734
 50
180.0
 71
    16
281
     0
 72
     0
110
0.0
120
0.0
130
0.0
111
1.0
121
0.0
131
0.0
112
0.0
122
1.0
132
0.0
  0
VIEW
  5
F1
100
AcDbSymbolTableRecord
100
AcDbViewTableRecord
  2
LEFT
 70
     0
 40
58.317469
 10
0.0
 20
0.0
 41
9.757936
 11
-1.0
 21
0.0
 31
0.0
 12
0.0
 22
0.0
 32
0.0
 42
50.0
 43
29.564102
 44
-29.564102
 50
0.0
 71
    16
281
     0
 72
     0
110
0.0
120
0.0
130
0.0
111
1.0
121
0.0
131
0.0
112
0.0
122
1.0
132
0.0
  0
VIEW
  5
F2
100
AcDbSymbolTableRecord
100
AcDbViewTableRecord
  2
TFR-ISO
 70
     0
 40
57.189042
 10
0.0
 20
0.0
 41
16.580971
 11
0.57735
 21
-0.57735
 31
0.57735
 12
0.0
 22
0.0
 32
0.0
 42
50.0
 43
29.772114
 44
-29.772114
 50
0.0
 71
    16
281
     0
 72
     0
110
0.0
120
0.0
130
0.0
111
1.0
121
0.0
131
0.0
112
0.0
122
1.0
132
0.0
  0
VIEW
  5
F3
100
AcDbSymbolTableRecord
100
AcDbViewTableRecord
  2
TFR-TRI
 70
     0
 40
60.350731
 10
0.0
 20
0.0
 41
16.210382
 11
0.718873
 21
-0.585049
 31
0.375419
 12
0.0
 22
0.0
 32
0.0
 42
50.0
 43
29.887703
 44
-29.887703
 50
0.0
 71
    16
281
     0
 72
     0
110
0.0
120
0.0
130
0.0
111
1.0
121
0.0
131
0.0
112
0.0
122
1.0
132
0.0
  0
ENDTAB
  0
TABLE
  2
UCS
  5
6
100
AcDbSymbolTable
 70
     0
  0
ENDTAB
  0
TABLE
  2
APPID
  5
8
100
AcDbSymbolTable
 70
     1
  0
APPID
  5
16
100
AcDbSymbolTableRecord
100
AcDbRegAppTableRecord
  2
ACAD
 70
     0
  0
ENDTAB
  0
TABLE
  2
DIMSTYLE
  5
9
100
AcDbSymbolTable
 70
     1
100
AcDbDimStyleTable
 71
     0
  0
DIMSTYLE
105
18
100
AcDbSymbolTableRecord
100
AcDbDimStyleTableRecord
  2
Standard
 70
     0
  3

  4

 40
1.0
 41
0.18
 42
0.0625
 43
0.38
 44
0.18
 45
0.0
 46
0.0
 47
0.0
 48
0.0
 71
     0
 72
     0
 73
     1
 74
     1
 75
     0
 76
     0
 77
     0
 78
     0
 79
     0
140
0.18
141
0.09
142
0.0
143
25.4
144
1.0
145
0.0
146
1.0
147
0.09
148
0.0
170
     0
171
     2
172
     0
173
     0
174
     0
175
     0
176
     0
177
     0
178
     0
179
     0
271
     4
272
     4
273
     2
274
     2
275
     0
276
     0
277
     2
278
    46
279
     0
280
     0
281
     0
282
     0
283
     1
284
     0
285
     0
286
     0
288
     0
289
     3
340
17
341
0
342
0
343
0
344
0
371
    -2
372
    -2
  0
ENDTAB
  0
TABLE
  2
BLOCK_RECORD
  5
1
100
AcDbSymbolTable
 70
     0
  0
BLOCK_RECORD
  5
A
100
AcDbSymbolTableRecord
100
AcDbBlockTableRecord
  2
*MODEL_SPACE
340
20
  0
BLOCK_RECORD
  5
B
100
AcDbSymbolTableRecord
100
AcDbBlockTableRecord
  2
*PAPER_SPACE
340
21
  0
ENDTAB
  0
ENDSEC
  0
SECTION
  2
BLOCKS
  0
BLOCK
  5
D
100
AcDbEntity
  8
0
390
0
100
AcDbBlockBegin
  2
*MODEL_SPACE
 70
     0
 10
0.0
 20
0.0
 30
0.0
  3
*MODEL_SPACE
  1

  0
ENDBLK
  5
E
100
AcDbEntity
  8
0
390
0
100
AcDbBlockEnd
  0
BLOCK
  5
F
100
AcDbEntity
 67
     1
  8
0
390
0
100
AcDbBlockBegin
  2
*PAPER_SPACE
 70
     0
 10
0.0
 20
0.0
 30
0.0
  3
*PAPER_SPACE
  1

  0
ENDBLK
  5
10
100
AcDbEntity
 67
     1
  8
0
390
0
100
AcDbBlockEnd
  0
ENDSEC
  0
SECTION
  2
ENTITIES
  0
LINE
  5
2A
100
AcDbEntity
  8
97
390
0
  6
Continuous
 62
   172
100
AcDbLine
 10
34.5
 20
35.75
 30
0.0
 11
34.5
 21
20.75
 31
0.0
  0
LINE
  5
2C
100
AcDbEntity
  8
97
390
0
  6
Continuous
 62
   172
100
AcDbLine
 10
6.788897
 20
-0.625
 30
0.0
 11
87.424285
 21
-0.625
 31
0.0
  0
LINE
  5
2D
100
AcDbEntity
  8
97
390
0
  6
Continuous
 62
   172
100
AcDbLine
 10
53.875
 20
4.25
 30
0.0
 11
80.125
 21
4.25
 31
0.0
  0
LINE
  5
2E
100
AcDbEntity
  8
97
390
0
  6
Continuous
 62
   172
100
AcDbLine
 10
80.125
 20
19.25
 30
0.0
 11
53.875
 21
19.25
 31
0.0
  0
LINE
  5
2F
100
AcDbEntity
  8
97
390
0
  6
Continuous
 62
   172
100
AcDbLine
 10
58.0
 20
35.75
 30
0.0
 11
76.0
 21
35.75
 31
0.0
  0
LINE
  5
30
100
AcDbEntity
  8
97
390
0
  6
Continuous
 62
   172
100
AcDbLine
 10
76.0
 20
35.75
 30
0.0
 11
76.0
 21
20.75
 31
0.0
  0
LINE
  5
31
100
AcDbEntity
  8
97
390
0
  6
Continuous
 62
   172
100
AcDbLine
 10
13.75
 20
31.812398
 30
0.0
 11
13.75
 21
20.75
 31
0.0
  0
LINE
  5
32
100
AcDbEntity
  8
97
390
0
  6
Continuous
 62
   172
100
AcDbLine
 10
76.0
 20
20.75
 30
0.0
 11
58.0
 21
20.75
 31
0.0
  0
LINE
  5
33
100
AcDbEntity
  8
97
390
0
  6
Continuous
 62
   172
100
AcDbLine
 10
58.0
 20
20.75
 30
0.0
 11
58.0
 21
35.75
 31
0.0
  0
LINE
  5
34
100
AcDbEntity
  8
97
390
0
  6
Continuous
 62
   172
100
AcDbLine
 10
53.125
 20
3.5
 30
0.0
 11
53.125
 21
43.711376
 31
0.0
  0
LINE
  5
35
100
AcDbEntity
  8
97
390
0
  6
Continuous
 62
   172
100
AcDbLine
 10
52.25
 20
20.75
 30
0.0
 11
52.25
 21
19.25
 31
0.0
  0
LINE
  5
36
100
AcDbEntity
  8
97
390
0
  6
Continuous
 62
   172
100
AcDbLine
 10
3.173577
 20
19.25
 30
0.0
 11
3.884119
 21
20.75
 31
0.0
  0
LINE
  5
37
100
AcDbEntity
  8
97
390
0
  6
Continuous
 62
   172
100
AcDbLine
 10
15.25
 20
20.75
 30
0.0
 11
15.25
 21
32.88968
 31
0.0
  0
LINE
  5
38
100
AcDbEntity
  8
97
390
0
  6
Continuous
 62
   172
100
AcDbLine
 10
15.25
 20
32.88968
 30
0.0
 11
13.75
 21
31.812398
 31
0.0
  0
LINE
  5
39
100
AcDbEntity
  8
97
390
0
  6
Continuous
 62
   172
100
AcDbLine
 10
13.75
 20
20.75
 30
0.0
 11
15.25
 21
20.75
 31
0.0
  0
LINE
  5
3A
100
AcDbEntity
  8
97
390
0
  6
Continuous
 62
   172
100
AcDbLine
 10
80.875
 20
39.735966
 30
0.0
 11
80.875
 21
3.5
 31
0.0
  0
LINE
  5
3B
100
AcDbEntity
  8
97
390
0
  6
Continuous
 62
   172
100
AcDbLine
 10
34.5
 20
12.195336
 30
0.0
 11
34.5
 21
19.25
 31
0.0
  0
LINE
  5
3C
100
AcDbEntity
  8
97
390
0
  6
Continuous
 62
   172
100
AcDbLine
 10
77.5
 20
20.75
 30
0.0
 11
77.5
 21
35.75
 31
0.0
  0
LINE
  5
3D
100
AcDbEntity
  8
97
390
0
  6
Continuous
 62
   172
100
AcDbLine
 10
80.125
 20
37.25
 30
0.0
 11
80.125
 21
39.306526
 31
0.0
  0
LINE
  5
3E
100
AcDbEntity
  8
97
390
0
  6
Continuous
 62
   172
100
AcDbLine
 10
52.25
 20
35.75
 30
0.0
 11
52.25
 21
37.25
 31
0.0
  0
LINE
  5
3F
100
AcDbEntity
  8
97
390
0
  6
Continuous
 62
   172
100
AcDbLine
 10
52.25
 20
19.25
 30
0.0
 11
3.173577
 21
19.25
 31
0.0
  0
LINE
  5
40
100
AcDbEntity
  8
97
390
0
  6
Continuous
 62
   172
100
AcDbLine
 10
80.125
 20
35.75
 30
0.0
 11
80.125
 21
20.75
 31
0.0
  0
LINE
  5
41
100
AcDbEntity
  8
97
390
0
  6
Continuous
 62
   172
100
AcDbLine
 10
53.875
 20
43.030354
 30
0.0
 11
53.875
 21
37.25
 31
0.0
  0
LINE
  5
42
100
AcDbEntity
  8
97
390
0
  6
Continuous
 62
   172
100
AcDbLine
 10
53.875
 20
19.25
 30
0.0
 11
53.875
 21
4.25
 31
0.0
  0
LINE
  5
43
100
AcDbEntity
  8
97
390
0
  6
Continuous
 62
   172
100
AcDbLine
 10
80.125
 20
4.25
 30
0.0
 11
80.125
 21
19.25
 31
0.0
  0
LINE
  5
44
100
AcDbEntity
  8
97
390
0
  6
Continuous
 62
   172
100
AcDbLine
 10
94.496685
 20
20.75
 30
0.0
 11
81.75
 21
20.75
 31
0.0
  0
LINE
  5
45
100
AcDbEntity
  8
97
390
0
  6
Continuous
 62
   172
100
AcDbLine
 10
81.75
 20
20.75
 30
0.0
 11
81.75
 21
19.25
 31
0.0
  0
LINE
  5
46
100
AcDbEntity
  8
97
390
0
  6
Continuous
 62
   172
100
AcDbLine
 10
81.75
 20
19.25
 30
0.0
 11
94.477787
 21
19.25
 31
0.0
  0
LINE
  5
47
100
AcDbEntity
  8
97
390
0
  6
Continuous
 62
   172
100
AcDbLine
 10
94.477787
 20
19.25
 30
0.0
 11
94.496685
 21
20.75
 31
0.0
  0
LINE
  5
48
100
AcDbEntity
  8
97
390
0
  6
Continuous
 62
   172
100
AcDbLine
 10
53.0
 20
43.824457
 30
0.0
 11
53.0
 21
3.375
 31
0.0
  0
LINE
  5
49
100
AcDbEntity
  8
97
390
0
  6
Continuous
 62
   172
100
AcDbLine
 10
53.0
 20
3.375
 30
0.0
 11
52.25
 21
3.375
 31
0.0
  0
LINE
  5
4A
100
AcDbEntity
  8
97
390
0
  6
Continuous
 62
   172
100
AcDbLine
 10
29.49314
 20
3.375
 30
0.0
 11
26.49801
 21
3.375
 31
0.0
  0
LINE
  5
4B
100
AcDbEntity
  8
97
390
0
  6
Continuous
 62
   172
100
AcDbLine
 10
52.25
 20
3.375
 30
0.0
 11
52.25
 21
45.254708
 31
0.0
  0
LINE
  5
4C
100
AcDbEntity
  8
97
390
0
  6
Continuous
 62
   172
100
AcDbLine
 10
52.25
 20
37.25
 30
0.0
 11
22.779815
 21
37.25
 31
0.0
  0
LINE
  5
4D
100
AcDbEntity
  8
97
390
0
  6
Continuous
 62
   172
100
AcDbLine
 10
22.779815
 20
37.25
 30
0.0
 11
19.886975
 21
35.75
 31
0.0
  0
LINE
  5
4E
100
AcDbEntity
  8
97
390
0
  6
Continuous
 62
   172
100
AcDbLine
 10
26.49801
 20
3.375
 30
0.0
 11
32.317613
 21
12.195336
 31
0.0
  0
LINE
  5
4F
100
AcDbEntity
  8
97
390
0
  6
Continuous
 62
   172
100
AcDbLine
 10
34.5
 20
12.195336
 30
0.0
 11
33.0
 21
12.195336
 31
0.0
  0
LINE
  5
50
100
AcDbEntity
  8
97
390
0
  6
Continuous
 62
   172
100
AcDbLine
 10
53.875
 20
20.75
 30
0.0
 11
56.5
 21
20.75
 31
0.0
  0
LINE
  5
51
100
AcDbEntity
  8
97
390
0
  6
Continuous
 62
   172
100
AcDbLine
 10
4.395314
 20
3.375
 30
0.0
 11
88.874658
 21
3.375
 31
0.0
  0
LINE
  5
52
100
AcDbEntity
  8
97
390
0
  6
Continuous
 62
   172
100
AcDbLine
 10
81.75
 20
37.25
 30
0.0
 11
86.857546
 21
37.25
 31
0.0
  0
LINE
  5
53
100
AcDbEntity
  8
97
390
0
  6
Continuous
 62
   172
100
AcDbLine
 10
56.5
 20
20.75
 30
0.0
 11
56.5
 21
35.75
 31
0.0
  0
LINE
  5
54
100
AcDbEntity
  8
97
390
0
  6
Continuous
 62
   172
100
AcDbLine
 10
56.5
 20
35.75
 30
0.0
 11
53.875
 21
35.75
 31
0.0
  0
LINE
  5
55
100
AcDbEntity
  8
97
390
0
  6
Continuous
 62
   172
100
AcDbLine
 10
53.875
 20
35.75
 30
0.0
 11
53.875
 21
20.75
 31
0.0
  0
LINE
  5
56
100
AcDbEntity
  8
97
390
0
  6
Continuous
 62
   172
100
AcDbLine
 10
86.857546
 20
37.25
 30
0.0
 11
88.324513
 21
35.75
 31
0.0
  0
LINE
  5
57
100
AcDbEntity
  8
97
390
0
  6
Continuous
 62
   172
100
AcDbLine
 10
88.324513
 20
35.75
 30
0.0
 11
81.75
 21
35.75
 31
0.0
  0
LINE
  5
58
100
AcDbEntity
  8
97
390
0
  6
Continuous
 62
   172
100
AcDbLine
 10
33.663258
 20
9.695336
 30
0.0
 11
29.49314
 21
3.375
 31
0.0
  0
LINE
  5
59
100
AcDbEntity
  8
97
390
0
  6
Continuous
 62
   172
100
AcDbLine
 10
77.5
 20
35.75
 30
0.0
 11
80.125
 21
35.75
 31
0.0
  0
LINE
  5
5A
100
AcDbEntity
  8
97
390
0
  6
Continuous
 62
   172
100
AcDbLine
 10
34.5
 20
37.25
 30
0.0
 11
34.5
 21
41.758722
 31
0.0
  0
LINE
  5
5B
100
AcDbEntity
  8
97
390
0
  6
Continuous
 62
   172
100
AcDbLine
 10
34.5
 20
41.758722
 30
0.0
 11
33.0
 21
41.297552
 31
0.0
  0
LINE
  5
5C
100
AcDbEntity
  8
97
390
0
  6
Continuous
 62
   172
100
AcDbLine
 10
33.0
 20
41.297552
 30
0.0
 11
33.0
 21
37.25
 31
0.0
  0
LINE
  5
5D
100
AcDbEntity
  8
97
390
0
  6
Continuous
 62
   172
100
AcDbLine
 10
33.0
 20
37.25
 30
0.0
 11
34.5
 21
37.25
 31
0.0
  0
LINE
  5
5E
100
AcDbEntity
  8
97
390
0
  6
Continuous
 62
   172
100
AcDbLine
 10
15.25
 20
3.375
 30
0.0
 11
15.25
 21
19.25
 31
0.0
  0
LINE
  5
5F
100
AcDbEntity
  8
97
390
0
  6
Continuous
 62
   172
100
AcDbLine
 10
15.25
 20
19.25
 30
0.0
 11
13.75
 21
19.25
 31
0.0
  0
LINE
  5
60
100
AcDbEntity
  8
97
390
0
  6
Continuous
 62
   172
100
AcDbLine
 10
13.75
 20
19.25
 30
0.0
 11
13.75
 21
3.375
 31
0.0
  0
LINE
  5
61
100
AcDbEntity
  8
97
390
0
  6
Continuous
 62
   172
100
AcDbLine
 10
53.875
 20
37.25
 30
0.0
 11
80.125
 21
37.25
 31
0.0
  0
LINE
  5
62
100
AcDbEntity
  8
97
390
0
  6
Continuous
 62
   172
100
AcDbLine
 10
13.75
 20
3.375
 30
0.0
 11
15.25
 21
3.375
 31
0.0
  0
LINE
  5
63
100
AcDbEntity
  8
97
390
0
  6
Continuous
 62
   172
100
AcDbLine
 10
33.0
 20
20.75
 30
0.0
 11
33.0
 21
35.75
 31
0.0
  0
LINE
  5
64
100
AcDbEntity
  8
97
390
0
  6
Continuous
 62
   172
100
AcDbLine
 10
33.0
 20
35.75
 30
0.0
 11
34.5
 21
35.75
 31
0.0
  0
LINE
  5
65
100
AcDbEntity
  8
97
390
0
  6
Continuous
 62
   172
100
AcDbLine
 10
34.5
 20
20.75
 30
0.0
 11
33.0
 21
20.75
 31
0.0
  0
LINE
  5
66
100
AcDbEntity
  8
97
390
0
  6
Continuous
 62
   172
100
AcDbLine
 10
33.0
 20
19.25
 30
0.0
 11
33.0
 21
12.195336
 31
0.0
  0
LINE
  5
67
100
AcDbEntity
  8
97
390
0
  6
Continuous
 62
   172
100
AcDbLine
 10
34.5
 20
19.25
 30
0.0
 11
33.0
 21
19.25
 31
0.0
  0
LINE
  5
68
100
AcDbEntity
  8
97
390
0
  6
Continuous
 62
   172
100
AcDbLine
 10
81.75
 20
41.106104
 30
0.0
 11
81.75
 21
3.375
 31
0.0
  0
LINE
  5
69
100
AcDbEntity
  8
97
390
0
  6
Continuous
 62
   172
100
AcDbLine
 10
81.75
 20
3.375
 30
0.0
 11
81.0
 21
3.375
 31
0.0
  0
LINE
  5
6A
100
AcDbEntity
  8
97
390
0
  6
Continuous
 62
   172
100
AcDbLine
 10
3.884119
 20
20.75
 30
0.0
 11
52.25
 21
20.75
 31
0.0
  0
LINE
  5
6B
100
AcDbEntity
  8
97
390
0
  6
Continuous
 62
   172
100
AcDbLine
 10
81.0
 20
3.375
 30
0.0
 11
81.0
 21
39.806826
 31
0.0
  0
LINE
  5
6C
100
AcDbEntity
  8
97
390
0
  6
Continuous
 62
   172
100
AcDbLine
 10
80.875
 20
3.5
 30
0.0
 11
53.125
 21
3.5
 31
0.0
  0
LINE
  5
6D
100
AcDbEntity
  8
97
390
0
  6
Continuous
 62
   172
100
AcDbLine
 10
81.75
 20
35.75
 30
0.0
 11
81.75
 21
37.25
 31
0.0
  0
LINE
  5
6E
100
AcDbEntity
  8
97
390
0
  6
Continuous
 62
   172
100
AcDbLine
 10
47.682387
 20
12.195336
 30
0.0
 11
52.25
 21
5.272547
 31
0.0
  0
LINE
  5
6F
100
AcDbEntity
  8
97
390
0
  6
Continuous
 62
   172
100
AcDbLine
 10
52.25
 20
5.272547
 30
0.0
 11
52.25
 21
3.375
 31
0.0
  0
LINE
  5
70
100
AcDbEntity
  8
97
390
0
  6
Continuous
 62
   172
100
AcDbLine
 10
52.25
 20
3.375
 30
0.0
 11
50.50686
 21
3.375
 31
0.0
  0
LINE
  5
71
100
AcDbEntity
  8
97
390
0
  6
Continuous
 62
   172
100
AcDbLine
 10
50.50686
 20
3.375
 30
0.0
 11
46.336742
 21
9.695336
 31
0.0
  0
LINE
  5
72
100
AcDbEntity
  8
97
390
0
  6
Continuous
 62
   172
100
AcDbLine
 10
46.336742
 20
9.695336
 30
0.0
 11
33.663258
 21
9.695336
 31
0.0
  0
LINE
  5
73
100
AcDbEntity
  8
97
390
0
  6
Continuous
 62
   172
100
AcDbLine
 10
80.125
 20
20.75
 30
0.0
 11
77.5
 21
20.75
 31
0.0
  0
LINE
  5
74
100
AcDbEntity
  8
97
390
0
  6
Continuous
 62
   172
100
AcDbLine
 10
19.886975
 20
35.75
 30
0.0
 11
52.25
 21
35.75
 31
0.0
  0
LINE
  5
75
100
AcDbEntity
  8
97
390
0
  6
Continuous
 62
   172
100
AcDbLine
 10
32.317613
 20
12.195336
 30
0.0
 11
47.682387
 21
12.195336
 31
0.0
  0
ARC
  5
76
100
AcDbEntity
  8
97
390
0
  6
Continuous
 62
   172
100
AcDbCircle
 10
14.0
 20
11.375
 30
0.0
 40
14.0
100
AcDbArc
 50
180.0
 51
238.997281
  0
ARC
  5
77
100
AcDbEntity
  8
97
390
0
  6
Continuous
 62
   172
100
AcDbCircle
 10
66.0
 20
20.375
 30
0.0
 40
30.0
100
AcDbArc
 50
-44.427004
 51
0.0
  0
ARC
  5
78
100
AcDbEntity
  8
97
390
0
  6
Continuous
 62
   172
100
AcDbCircle
 10
66.0
 20
20.375
 30
0.0
 40
28.5
100
AcDbArc
 50
-36.619012
 51
0.0
  0
ARC
  5
79
100
AcDbEntity
  8
97
390
0
  6
Continuous
 62
   172
100
AcDbCircle
 10
14.0
 20
11.375
 30
0.0
 40
12.5
100
AcDbArc
 50
180.0
 51
219.791819
  0
POLYLINE
  5
7A
100
AcDbEntity
  8
97
390
0
  6
Continuous
 62
   172
100
AcDb3dPolyline
 66
     1
 10
0.0
 20
0.0
 30
0.0
 70
     8
  0
VERTEX
  5
7B
100
AcDbEntity
  8
97
390
0
  6
Continuous
 62
   172
100
AcDbVertex
100
AcDb3dPolylineVertex
 10
96.0
 20
20.375
 30
0.0
 70
    32
  0
VERTEX
  5
7C
100
AcDbEntity
  8
97
390
0
  6
Continuous
 62
   172
100
AcDbVertex
100
AcDb3dPolylineVertex
 10
95.98421
 20
21.22309
 30
0.0
 70
    32
  0
VERTEX
  5
7D
100
AcDbEntity
  8
97
390
0
  6
Continuous
 62
   172
100
AcDbVertex
100
AcDb3dPolylineVertex
 10
95.936855
 20
22.070344
 30
0.0
 70
    32
  0
VERTEX
  5
7E
100
AcDbEntity
  8
97
390
0
  6
Continuous
 62
   172
100
AcDbVertex
100
AcDb3dPolylineVertex
 10
95.857983
 20
22.915924
 30
0.0
 70
    32
  0
VERTEX
  5
7F
100
AcDbEntity
  8
97
390
0
  6
Continuous
 62
   172
100
AcDbVertex
100
AcDb3dPolylineVertex
 10
95.74767
 20
23.758997
 30
0.0
 70
    32
  0
VERTEX
  5
80
100
AcDbEntity
  8
97
390
0
  6
Continuous
 62
   172
100
AcDbVertex
100
AcDb3dPolylineVertex
 10
95.606027
 20
24.598731
 30
0.0
 70
    32
  0
VERTEX
  5
81
100
AcDbEntity
  8
97
390
0
  6
Continuous
 62
   172
100
AcDbVertex
100
AcDb3dPolylineVertex
 10
95.433192
 20
25.434295
 30
0.0
 70
    32
  0
VERTEX
  5
82
100
AcDbEntity
  8
97
390
0
  6
Continuous
 62
   172
100
AcDbVertex
100
AcDb3dPolylineVertex
 10
95.229336
 20
26.264868
 30
0.0
 70
    32
  0
VERTEX
  5
83
100
AcDbEntity
  8
97
390
0
  6
Continuous
 62
   172
100
AcDbVertex
100
AcDb3dPolylineVertex
 10
94.994661
 20
27.089627
 30
0.0
 70
    32
  0
VERTEX
  5
84
100
AcDbEntity
  8
97
390
0
  6
Continuous
 62
   172
100
AcDbVertex
100
AcDb3dPolylineVertex
 10
94.729398
 20
27.90776
 30
0.0
 70
    32
  0
VERTEX
  5
85
100
AcDbEntity
  8
97
390
0
  6
Continuous
 62
   172
100
AcDbVertex
100
AcDb3dPolylineVertex
 10
94.433809
 20
28.718459
 30
0.0
 70
    32
  0
VERTEX
  5
86
100
AcDbEntity
  8
97
390
0
  6
Continuous
 62
   172
100
AcDbVertex
100
AcDb3dPolylineVertex
 10
94.108185
 20
29.520924
 30
0.0
 70
    32
  0
VERTEX
  5
87
100
AcDbEntity
  8
97
390
0
  6
Continuous
 62
   172
100
AcDbVertex
100
AcDb3dPolylineVertex
 10
93.752848
 20
30.314363
 30
0.0
 70
    32
  0
VERTEX
  5
88
100
AcDbEntity
  8
97
390
0
  6
Continuous
 62
   172
100
AcDbVertex
100
AcDb3dPolylineVertex
 10
93.368148
 20
31.097993
 30
0.0
 70
    32
  0
VERTEX
  5
89
100
AcDbEntity
  8
97
390
0
  6
Continuous
 62
   172
100
AcDbVertex
100
AcDb3dPolylineVertex
 10
92.954466
 20
31.871041
 30
0.0
 70
    32
  0
VERTEX
  5
8A
100
AcDbEntity
  8
97
390
0
  6
Continuous
 62
   172
100
AcDbVertex
100
AcDb3dPolylineVertex
 10
92.512209
 20
32.632743
 30
0.0
 70
    32
  0
VERTEX
  5
8B
100
AcDbEntity
  8
97
390
0
  6
Continuous
 62
   172
100
AcDbVertex
100
AcDb3dPolylineVertex
 10
92.041814
 20
33.382349
 30
0.0
 70
    32
  0
VERTEX
  5
8C
100
AcDbEntity
  8
97
390
0
  6
Continuous
 62
   172
100
AcDbVertex
100
AcDb3dPolylineVertex
 10
91.543745
 20
34.119118
 30
0.0
 70
    32
  0
VERTEX
  5
8D
100
AcDbEntity
  8
97
390
0
  6
Continuous
 62
   172
100
AcDbVertex
100
AcDb3dPolylineVertex
 10
91.018494
 20
34.842323
 30
0.0
 70
    32
  0
VERTEX
  5
8E
100
AcDbEntity
  8
97
390
0
  6
Continuous
 62
   172
100
AcDbVertex
100
AcDb3dPolylineVertex
 10
90.466578
 20
35.551251
 30
0.0
 70
    32
  0
VERTEX
  5
8F
100
AcDbEntity
  8
97
390
0
  6
Continuous
 62
   172
100
AcDbVertex
100
AcDb3dPolylineVertex
 10
89.888544
 20
36.245202
 30
0.0
 70
    32
  0
VERTEX
  5
90
100
AcDbEntity
  8
97
390
0
  6
Continuous
 62
   172
100
AcDbVertex
100
AcDb3dPolylineVertex
 10
89.28496
 20
36.92349
 30
0.0
 70
    32
  0
VERTEX
  5
91
100
AcDbEntity
  8
97
390
0
  6
Continuous
 62
   172
100
AcDbVertex
100
AcDb3dPolylineVertex
 10
88.656424
 20
37.585448
 30
0.0
 70
    32
  0
VERTEX
  5
92
100
AcDbEntity
  8
97
390
0
  6
Continuous
 62
   172
100
AcDbVertex
100
AcDb3dPolylineVertex
 10
88.003554
 20
38.23042
 30
0.0
 70
    32
  0
VERTEX
  5
93
100
AcDbEntity
  8
97
390
0
  6
Continuous
 62
   172
100
AcDbVertex
100
AcDb3dPolylineVertex
 10
87.326996
 20
38.857772
 30
0.0
 70
    32
  0
VERTEX
  5
94
100
AcDbEntity
  8
97
390
0
  6
Continuous
 62
   172
100
AcDbVertex
100
AcDb3dPolylineVertex
 10
86.627417
 20
39.466883
 30
0.0
 70
    32
  0
VERTEX
  5
95
100
AcDbEntity
  8
97
390
0
  6
Continuous
 62
   172
100
AcDbVertex
100
AcDb3dPolylineVertex
 10
85.905507
 20
40.057153
 30
0.0
 70
    32
  0
VERTEX
  5
96
100
AcDbEntity
  8
97
390
0
  6
Continuous
 62
   172
100
AcDbVertex
100
AcDb3dPolylineVertex
 10
85.16198
 20
40.627999
 30
0.0
 70
    32
  0
VERTEX
  5
97
100
AcDbEntity
  8
97
390
0
  6
Continuous
 62
   172
100
AcDbVertex
100
AcDb3dPolylineVertex
 10
84.397568
 20
41.178858
 30
0.0
 70
    32
  0
VERTEX
  5
98
100
AcDbEntity
  8
97
390
0
  6
Continuous
 62
   172
100
AcDbVertex
100
AcDb3dPolylineVertex
 10
83.613026
 20
41.709185
 30
0.0
 70
    32
  0
VERTEX
  5
99
100
AcDbEntity
  8
97
390
0
  6
Continuous
 62
   172
100
AcDbVertex
100
AcDb3dPolylineVertex
 10
82.809128
 20
42.218459
 30
0.0
 70
    32
  0
VERTEX
  5
9A
100
AcDbEntity
  8
97
390
0
  6
Continuous
 62
   172
100
AcDbVertex
100
AcDb3dPolylineVertex
 10
81.986668
 20
42.706176
 30
0.0
 70
    32
  0
VERTEX
  5
9B
100
AcDbEntity
  8
97
390
0
  6
Continuous
 62
   172
100
AcDbVertex
100
AcDb3dPolylineVertex
 10
81.146457
 20
43.171854
 30
0.0
 70
    32
  0
VERTEX
  5
9C
100
AcDbEntity
  8
97
390
0
  6
Continuous
 62
   172
100
AcDbVertex
100
AcDb3dPolylineVertex
 10
80.289325
 20
43.615035
 30
0.0
 70
    32
  0
VERTEX
  5
9D
100
AcDbEntity
  8
97
390
0
  6
Continuous
 62
   172
100
AcDbVertex
100
AcDb3dPolylineVertex
 10
79.416118
 20
44.03528
 30
0.0
 70
    32
  0
VERTEX
  5
9E
100
AcDbEntity
  8
97
390
0
  6
Continuous
 62
   172
100
AcDbVertex
100
AcDb3dPolylineVertex
 10
78.527696
 20
44.432176
 30
0.0
 70
    32
  0
VERTEX
  5
9F
100
AcDbEntity
  8
97
390
0
  6
Continuous
 62
   172
100
AcDbVertex
100
AcDb3dPolylineVertex
 10
77.624937
 20
44.80533
 30
0.0
 70
    32
  0
VERTEX
  5
A0
100
AcDbEntity
  8
97
390
0
  6
Continuous
 62
   172
100
AcDbVertex
100
AcDb3dPolylineVertex
 10
76.708733
 20
45.154375
 30
0.0
 70
    32
  0
VERTEX
  5
A1
100
AcDbEntity
  8
97
390
0
  6
Continuous
 62
   172
100
AcDbVertex
100
AcDb3dPolylineVertex
 10
75.779986
 20
45.478965
 30
0.0
 70
    32
  0
VERTEX
  5
A2
100
AcDbEntity
  8
97
390
0
  6
Continuous
 62
   172
100
AcDbVertex
100
AcDb3dPolylineVertex
 10
74.839613
 20
45.778781
 30
0.0
 70
    32
  0
VERTEX
  5
A3
100
AcDbEntity
  8
97
390
0
  6
Continuous
 62
   172
100
AcDbVertex
100
AcDb3dPolylineVertex
 10
73.888544
 20
46.053526
 30
0.0
 70
    32
  0
VERTEX
  5
A4
100
AcDbEntity
  8
97
390
0
  6
Continuous
 62
   172
100
AcDbVertex
100
AcDb3dPolylineVertex
 10
72.927715
 20
46.30293
 30
0.0
 70
    32
  0
VERTEX
  5
A5
100
AcDbEntity
  8
97
390
0
  6
Continuous
 62
   172
100
AcDbVertex
100
AcDb3dPolylineVertex
 10
71.958076
 20
46.526745
 30
0.0
 70
    32
  0
VERTEX
  5
A6
100
AcDbEntity
  8
97
390
0
  6
Continuous
 62
   172
100
AcDbVertex
100
AcDb3dPolylineVertex
 10
70.980584
 20
46.724753
 30
0.0
 70
    32
  0
VERTEX
  5
A7
100
AcDbEntity
  8
97
390
0
  6
Continuous
 62
   172
100
AcDbVertex
100
AcDb3dPolylineVertex
 10
69.996202
 20
46.896756
 30
0.0
 70
    32
  0
VERTEX
  5
A8
100
AcDbEntity
  8
97
390
0
  6
Continuous
 62
   172
100
AcDbVertex
100
AcDb3dPolylineVertex
 10
69.005903
 20
47.042585
 30
0.0
 70
    32
  0
VERTEX
  5
A9
100
AcDbEntity
  8
97
390
0
  6
Continuous
 62
   172
100
AcDbVertex
100
AcDb3dPolylineVertex
 10
68.010663
 20
47.162097
 30
0.0
 70
    32
  0
VERTEX
  5
AA
100
AcDbEntity
  8
97
390
0
  6
Continuous
 62
   172
100
AcDbVertex
100
AcDb3dPolylineVertex
 10
67.011466
 20
47.255173
 30
0.0
 70
    32
  0
VERTEX
  5
AB
100
AcDbEntity
  8
97
390
0
  6
Continuous
 62
   172
100
AcDbVertex
100
AcDb3dPolylineVertex
 10
66.009297
 20
47.321722
 30
0.0
 70
    32
  0
VERTEX
  5
AC
100
AcDbEntity
  8
97
390
0
  6
Continuous
 62
   172
100
AcDbVertex
100
AcDb3dPolylineVertex
 10
65.005144
 20
47.361677
 30
0.0
 70
    32
  0
SEQEND
  5
AD
100
AcDbEntity
  8
97
390
0
  6
Continuous
 62
   172
  0
POLYLINE
  5
AE
100
AcDbEntity
  8
97
390
0
  6
Continuous
 62
   172
100
AcDb3dPolyline
 66
     1
 10
0.0
 20
0.0
 30
0.0
 70
     8
  0
VERTEX
  5
AF
100
AcDbEntity
  8
97
390
0
  6
Continuous
 62
   172
100
AcDbVertex
100
AcDb3dPolylineVertex
 10
64.0
 20
47.375
 30
0.0
 70
    32
  0
VERTEX
  5
B0
100
AcDbEntity
  8
97
390
0
  6
Continuous
 62
   172
100
AcDbVertex
100
AcDb3dPolylineVertex
 10
61.989711
 20
47.357236
 30
0.0
 70
    32
  0
VERTEX
  5
B1
100
AcDbEntity
  8
97
390
0
  6
Continuous
 62
   172
100
AcDbVertex
100
AcDb3dPolylineVertex
 10
59.981407
 20
47.303962
 30
0.0
 70
    32
  0
VERTEX
  5
B2
100
AcDbEntity
  8
97
390
0
  6
Continuous
 62
   172
100
AcDbVertex
100
AcDb3dPolylineVertex
 10
57.977068
 20
47.215231
 30
0.0
 70
    32
  0
VERTEX
  5
B3
100
AcDbEntity
  8
97
390
0
  6
Continuous
 62
   172
100
AcDbVertex
100
AcDb3dPolylineVertex
 10
55.978673
 20
47.091129
 30
0.0
 70
    32
  0
VERTEX
  5
B4
100
AcDbEntity
  8
97
390
0
  6
Continuous
 62
   172
100
AcDbVertex
100
AcDb3dPolylineVertex
 10
53.988194
 20
46.93178
 30
0.0
 70
    32
  0
VERTEX
  5
B5
100
AcDbEntity
  8
97
390
0
  6
Continuous
 62
   172
100
AcDbVertex
100
AcDb3dPolylineVertex
 10
52.007596
 20
46.737341
 30
0.0
 70
    32
  0
VERTEX
  5
B6
100
AcDbEntity
  8
97
390
0
  6
Continuous
 62
   172
100
AcDbVertex
100
AcDb3dPolylineVertex
 10
50.038833
 20
46.508003
 30
0.0
 70
    32
  0
VERTEX
  5
B7
100
AcDbEntity
  8
97
390
0
  6
Continuous
 62
   172
100
AcDbVertex
100
AcDb3dPolylineVertex
 10
48.083847
 20
46.243994
 30
0.0
 70
    32
  0
VERTEX
  5
B8
100
AcDbEntity
  8
97
390
0
  6
Continuous
 62
   172
100
AcDbVertex
100
AcDb3dPolylineVertex
 10
46.144569
 20
45.945573
 30
0.0
 70
    32
  0
VERTEX
  5
B9
100
AcDbEntity
  8
97
390
0
  6
Continuous
 62
   172
100
AcDbVertex
100
AcDb3dPolylineVertex
 10
44.222912
 20
45.613035
 30
0.0
 70
    32
  0
VERTEX
  5
BA
100
AcDbEntity
  8
97
390
0
  6
Continuous
 62
   172
100
AcDbVertex
100
AcDb3dPolylineVertex
 10
42.320773
 20
45.246708
 30
0.0
 70
    32
  0
VERTEX
  5
BB
100
AcDbEntity
  8
97
390
0
  6
Continuous
 62
   172
100
AcDbVertex
100
AcDb3dPolylineVertex
 10
40.440029
 20
44.846953
 30
0.0
 70
    32
  0
VERTEX
  5
BC
100
AcDbEntity
  8
97
390
0
  6
Continuous
 62
   172
100
AcDbVertex
100
AcDb3dPolylineVertex
 10
38.582535
 20
44.414167
 30
0.0
 70
    32
  0
VERTEX
  5
BD
100
AcDbEntity
  8
97
390
0
  6
Continuous
 62
   172
100
AcDbVertex
100
AcDb3dPolylineVertex
 10
36.750125
 20
43.948774
 30
0.0
 70
    32
  0
VERTEX
  5
BE
100
AcDbEntity
  8
97
390
0
  6
Continuous
 62
   172
100
AcDbVertex
100
AcDb3dPolylineVertex
 10
34.944608
 20
43.451235
 30
0.0
 70
    32
  0
VERTEX
  5
BF
100
AcDbEntity
  8
97
390
0
  6
Continuous
 62
   172
100
AcDbVertex
100
AcDb3dPolylineVertex
 10
33.167765
 20
42.92204
 30
0.0
 70
    32
  0
VERTEX
  5
C0
100
AcDbEntity
  8
97
390
0
  6
Continuous
 62
   172
100
AcDbVertex
100
AcDb3dPolylineVertex
 10
31.421349
 20
42.361713
 30
0.0
 70
    32
  0
VERTEX
  5
C1
100
AcDbEntity
  8
97
390
0
  6
Continuous
 62
   172
100
AcDbVertex
100
AcDb3dPolylineVertex
 10
29.707085
 20
41.770805
 30
0.0
 70
    32
  0
VERTEX
  5
C2
100
AcDbEntity
  8
97
390
0
  6
Continuous
 62
   172
100
AcDbVertex
100
AcDb3dPolylineVertex
 10
28.026664
 20
41.149901
 30
0.0
 70
    32
  0
VERTEX
  5
C3
100
AcDbEntity
  8
97
390
0
  6
Continuous
 62
   172
100
AcDbVertex
100
AcDb3dPolylineVertex
 10
26.381744
 20
40.499612
 30
0.0
 70
    32
  0
VERTEX
  5
C4
100
AcDbEntity
  8
97
390
0
  6
Continuous
 62
   172
100
AcDbVertex
100
AcDb3dPolylineVertex
 10
24.773949
 20
39.82058
 30
0.0
 70
    32
  0
VERTEX
  5
C5
100
AcDbEntity
  8
97
390
0
  6
Continuous
 62
   172
100
AcDbVertex
100
AcDb3dPolylineVertex
 10
23.204865
 20
39.113477
 30
0.0
 70
    32
  0
VERTEX
  5
C6
100
AcDbEntity
  8
97
390
0
  6
Continuous
 62
   172
100
AcDbVertex
100
AcDb3dPolylineVertex
 10
21.676041
 20
38.378999
 30
0.0
 70
    32
  0
VERTEX
  5
C7
100
AcDbEntity
  8
97
390
0
  6
Continuous
 62
   172
100
AcDbVertex
100
AcDb3dPolylineVertex
 10
20.188985
 20
37.617871
 30
0.0
 70
    32
  0
VERTEX
  5
C8
100
AcDbEntity
  8
97
390
0
  6
Continuous
 62
   172
100
AcDbVertex
100
AcDb3dPolylineVertex
 10
18.745166
 20
36.830844
 30
0.0
 70
    32
  0
VERTEX
  5
C9
100
AcDbEntity
  8
97
390
0
  6
Continuous
 62
   172
100
AcDbVertex
100
AcDb3dPolylineVertex
 10
17.346008
 20
36.018696
 30
0.0
 70
    32
  0
VERTEX
  5
CA
100
AcDbEntity
  8
97
390
0
  6
Continuous
 62
   172
100
AcDbVertex
100
AcDb3dPolylineVertex
 10
15.992892
 20
35.182227
 30
0.0
 70
    32
  0
VERTEX
  5
CB
100
AcDbEntity
  8
97
390
0
  6
Continuous
 62
   172
100
AcDbVertex
100
AcDb3dPolylineVertex
 10
14.687152
 20
34.322264
 30
0.0
 70
    32
  0
VERTEX
  5
CC
100
AcDbEntity
  8
97
390
0
  6
Continuous
 62
   172
100
AcDbVertex
100
AcDb3dPolylineVertex
 10
13.430079
 20
33.439654
 30
0.0
 70
    32
  0
VERTEX
  5
CD
100
AcDbEntity
  8
97
390
0
  6
Continuous
 62
   172
100
AcDbVertex
100
AcDb3dPolylineVertex
 10
12.222912
 20
32.535269
 30
0.0
 70
    32
  0
VERTEX
  5
CE
100
AcDbEntity
  8
97
390
0
  6
Continuous
 62
   172
100
AcDbVertex
100
AcDb3dPolylineVertex
 10
11.066843
 20
31.610002
 30
0.0
 70
    32
  0
VERTEX
  5
CF
100
AcDbEntity
  8
97
390
0
  6
Continuous
 62
   172
100
AcDbVertex
100
AcDb3dPolylineVertex
 10
9.963013
 20
30.664765
 30
0.0
 70
    32
  0
VERTEX
  5
D0
100
AcDbEntity
  8
97
390
0
  6
Continuous
 62
   172
100
AcDbVertex
100
AcDb3dPolylineVertex
 10
8.91251
 20
29.700491
 30
0.0
 70
    32
  0
VERTEX
  5
D1
100
AcDbEntity
  8
97
390
0
  6
Continuous
 62
   172
100
AcDbVertex
100
AcDb3dPolylineVertex
 10
7.916372
 20
28.718132
 30
0.0
 70
    32
  0
VERTEX
  5
D2
100
AcDbEntity
  8
97
390
0
  6
Continuous
 62
   172
100
AcDbVertex
100
AcDb3dPolylineVertex
 10
6.975582
 20
27.718658
 30
0.0
 70
    32
  0
VERTEX
  5
D3
100
AcDbEntity
  8
97
390
0
  6
Continuous
 62
   172
100
AcDbVertex
100
AcDb3dPolylineVertex
 10
6.091069
 20
26.703054
 30
0.0
 70
    32
  0
VERTEX
  5
D4
100
AcDbEntity
  8
97
390
0
  6
Continuous
 62
   172
100
AcDbVertex
100
AcDb3dPolylineVertex
 10
5.263704
 20
25.672324
 30
0.0
 70
    32
  0
VERTEX
  5
D5
100
AcDbEntity
  8
97
390
0
  6
Continuous
 62
   172
100
AcDbVertex
100
AcDb3dPolylineVertex
 10
4.494305
 20
24.627484
 30
0.0
 70
    32
  0
VERTEX
  5
D6
100
AcDbEntity
  8
97
390
0
  6
Continuous
 62
   172
100
AcDbVertex
100
AcDb3dPolylineVertex
 10
3.783631
 20
23.569565
 30
0.0
 70
    32
  0
VERTEX
  5
D7
100
AcDbEntity
  8
97
390
0
  6
Continuous
 62
   172
100
AcDbVertex
100
AcDb3dPolylineVertex
 10
3.132383
 20
22.499612
 30
0.0
 70
    32
  0
VERTEX
  5
D8
100
AcDbEntity
  8
97
390
0
  6
Continuous
 62
   172
100
AcDbVertex
100
AcDb3dPolylineVertex
 10
2.541204
 20
21.41868
 30
0.0
 70
    32
  0
VERTEX
  5
D9
100
AcDbEntity
  8
97
390
0
  6
Continuous
 62
   172
100
AcDbVertex
100
AcDb3dPolylineVertex
 10
2.010678
 20
20.327836
 30
0.0
 70
    32
  0
VERTEX
  5
DA
100
AcDbEntity
  8
97
390
0
  6
Continuous
 62
   172
100
AcDbVertex
100
AcDb3dPolylineVertex
 10
1.541327
 20
19.228157
 30
0.0
 70
    32
  0
VERTEX
  5
DB
100
AcDbEntity
  8
97
390
0
  6
Continuous
 62
   172
100
AcDbVertex
100
AcDb3dPolylineVertex
 10
1.133616
 20
18.120727
 30
0.0
 70
    32
  0
VERTEX
  5
DC
100
AcDbEntity
  8
97
390
0
  6
Continuous
 62
   172
100
AcDbVertex
100
AcDb3dPolylineVertex
 10
0.787946
 20
17.006641
 30
0.0
 70
    32
  0
VERTEX
  5
DD
100
AcDbEntity
  8
97
390
0
  6
Continuous
 62
   172
100
AcDbVertex
100
AcDb3dPolylineVertex
 10
0.504659
 20
15.886996
 30
0.0
 70
    32
  0
VERTEX
  5
DE
100
AcDbEntity
  8
97
390
0
  6
Continuous
 62
   172
100
AcDbVertex
100
AcDb3dPolylineVertex
 10
0.284034
 20
14.762899
 30
0.0
 70
    32
  0
VERTEX
  5
DF
100
AcDbEntity
  8
97
390
0
  6
Continuous
 62
   172
100
AcDbVertex
100
AcDb3dPolylineVertex
 10
0.126289
 20
13.635459
 30
0.0
 70
    32
  0
VERTEX
  5
E0
100
AcDbEntity
  8
97
390
0
  6
Continuous
 62
   172
100
AcDbVertex
100
AcDb3dPolylineVertex
 10
0.03158
 20
12.505787
 30
0.0
 70
    32
  0
SEQEND
  5
E1
100
AcDbEntity
  8
97
390
0
  6
Continuous
 62
   172
  0
SPLINE
  5
E2
100
AcDbEntity
  8
97
390
0
  6
Continuous
 62
   172
100
AcDbSpline
210
0.0
220
0.0
230
1.0
 70
     0
 71
     3
 72
    11
 73
     7
 74
     0
 42
0.000001
 43
0.000001
 40
0.0
 40
0.0
 40
0.0
 40
0.0
 40
0.2503367549600312
 40
0.5006735099200623
 40
0.7510102648800936
 40
1.0
 40
1.0
 40
1.0
 40
1.0
 10
64.000000000000114
 20
45.874999999999901
 30
0.0000000000000026
 10
65.444666019997157
 20
45.874999999999901
 30
0.0000000000000026
 10
68.419027286607914
 20
45.702804962076293
 30
0.0000000000000026
 10
73.005754023634552
 20
44.846021172545179
 30
0.0000000000000026
 10
77.537408096295337
 20
43.345233906427246
 30
0.0000000000000026
 10
80.396076404904619
 20
41.917242225176068
 30
0.0000000000000026
 10
81.750000000000782
 20
41.106104277250829
 30
0.0000000000000026
  0
SPLINE
  5
E3
100
AcDbEntity
  8
97
390
0
  6
Continuous
 62
   172
100
AcDbSpline
210
0.0
220
0.0
230
1.0
 70
     0
 71
     3
 72
    22
 73
    18
 74
     0
 42
0.000001
 43
0.000001
 40
0.0
 40
0.0
 40
0.0
 40
0.0
 40
0.0625
 40
0.125
 40
0.1875
 40
0.25
 40
0.3125
 40
0.375
 40
0.4375
 40
0.5
 40
0.5625
 40
0.625
 40
0.6875
 40
0.75
 40
0.8125
 40
0.875
 40
1.0
 40
1.0
 40
1.0
 40
1.0
 10
63.999999999999936
 20
45.875
 30
0.0000000000000027
 10
62.139240594330133
 20
45.875
 30
0.0000000000000027
 10
58.349211279461038
 20
45.782382222102399
 30
0.0000000000000027
 10
52.52093741035501
 20
45.33699566794423
 30
0.0000000000000027
 10
46.625020445687156
 20
44.561960146949708
 30
0.0000000000000027
 10
40.748718786908015
 20
43.441748527483824
 30
0.0000000000000027
 10
34.988014274690372
 20
41.970503745671415
 30
0.0000000000000027
 10
29.443555110378135
 20
40.153671668189169
 30
0.0000000000000027
 10
24.215580213851752
 20
38.00891594205531
 30
0.0000000000000027
 10
19.398330313406142
 20
35.566236094780322
 30
0.0000000000000027
 10
15.074445713581804
 20
32.867024580996642
 30
0.0000000000000027
 10
11.309845825793763
 20
29.962185260710466
 30
0.0000000000000027
 10
8.1497500461537147
 20
26.909166306373493
 30
0.0000000000000027
 10
5.6160822322119568
 20
23.768088602744459
 30
0.0000000000000027
 10
3.7071167949358004
 20
20.596992313968713
 30
0.0000000000000027
 10
1.9637104717539902
 20
16.39633751552606
 30
0.0000000000000027
 10
1.4999999999998646
 20
13.339186078674954
 30
0.0000000000000027
 10
1.4999999999998648
 20
11.374999999999966
 30
0.0000000000000027
  0
SPLINE
  5
E4
100
AcDbEntity
  8
97
390
0
  6
Continuous
 62
   172
100
AcDbSpline
210
0.0
220
0.0
230
1.0
 70
     0
 71
     3
 72
    11
 73
     7
 74
     0
 42
0.000001
 43
0.000001
 40
0.0
 40
0.0
 40
0.0
 40
0.0
 40
0.2509836737820923
 40
0.5019673475641846
 40
0.7529510213462769
 40
1.0
 40
1.0
 40
1.0
 40
1.0
 10
64.000000000000114
 20
44.249999999999901
 30
0.0000000000000027
 10
65.379979586602232
 20
44.249999999999901
 30
0.0000000000000027
 10
68.22207858553746
 20
44.085454868392333
 30
0.0000000000000027
 10
72.600122620912828
 20
43.267383924567852
 30
0.0000000000000027
 10
76.902312106671999
 20
41.842201203726496
 30
0.0000000000000027
 10
79.604136857001023
 20
40.494585116685762
 30
0.0000000000000027
 10
80.874999999999631
 20
39.735966221734692
 30
0.0000000000000027
  0
SPLINE
  5
E5
100
AcDbEntity
  8
97
390
0
  6
Continuous
 62
   172
100
AcDbSpline
210
0.0
220
0.0
230
1.0
 70
     0
 71
     3
 72
     9
 73
     5
 74
     0
 42
0.000001
 43
0.000001
 40
0.0
 40
0.0
 40
0.0
 40
0.0
 40
0.5149261298164021
 40
1.0
 40
1.0
 40
1.0
 40
1.0
 10
63.999999999999936
 20
44.375
 30
0.0000000000000027
 10
62.164099824411984
 20
44.375
 30
0.0000000000000027
 10
58.533090614351678
 20
44.286263222162844
 30
0.0000000000000027
 10
54.814084121288431
 20
44.007517010071538
 30
0.0000000000000027
 10
52.999999999999687
 20
43.824456937811256
 30
0.0000000000000027
  0
SPLINE
  5
E6
100
AcDbEntity
  8
97
390
0
  6
Continuous
 62
   172
100
AcDbSpline
210
0.0
220
0.0
230
1.0
 70
     0
 71
     3
 72
     9
 73
     5
 74
     0
 42
0.000001
 43
0.000001
 40
0.0
 40
0.0
 40
0.0
 40
0.0
 40
0.4949312998301756
 40
1.0
 40
1.0
 40
1.0
 40
1.0
 10
53.124999999626993
 20
43.711375892976406
 30
0.0000000000000028
 10
54.954808554949338
 20
43.894069389513
 30
0.0000000000000028
 10
58.630724872669795
 20
44.164808033448459
 30
0.0000000000000028
 10
62.219330803313611
 20
44.249999999999993
 30
0.0000000000000028
 10
63.999999999999936
 20
44.249999999999993
 30
0.0000000000000028
  0
SPLINE
  5
E7
100
AcDbEntity
  8
97
390
0
  6
Continuous
 62
   172
100
AcDbSpline
210
0.0
220
0.0
230
1.0
 70
     0
 71
     3
 72
    11
 73
     7
 74
     0
 42
0.000001
 43
0.000001
 40
0.0
 40
0.0
 40
0.0
 40
0.0
 40
0.2314116908706642
 40
0.4876077939137761
 40
0.743803896956888
 40
1.0
 40
1.0
 40
1.0
 40
1.0
 10
80.125000000000028
 20
39.306526258341748
 30
0.0000000000000027
 10
78.981149787482721
 20
39.966460713505285
 30
0.0000000000000027
 10
76.453867708125927
 20
41.202748042404544
 30
0.0000000000000027
 10
72.379137134587836
 20
42.546604980845132
 30
0.0000000000000027
 10
68.114522746528422
 20
43.340277599136343
 30
0.0000000000000027
 10
65.344878718612264
 20
43.499999999999901
 30
0.0000000000000027
 10
64.000000000000114
 20
43.499999999999901
 30
0.0000000000000027
  0
SPLINE
  5
E8
100
AcDbEntity
  8
97
390
0
  6
Continuous
 62
   172
100
AcDbSpline
210
0.0
220
0.0
230
1.0
 70
     0
 71
     3
 72
     9
 73
     5
 74
     0
 42
0.000001
 43
0.000001
 40
0.0
 40
0.0
 40
0.0
 40
0.0
 40
0.5326952927013681
 40
1.0
 40
1.0
 40
1.0
 40
1.0
 10
63.999999999999936
 20
43.499999999999993
 30
0.0000000000000027
 10
62.249161607806869
 20
43.499999999999993
 30
0.0000000000000027
 10
58.90423532451419
 20
43.421378653608471
 30
0.0000000000000027
 10
55.482876365627455
 20
43.180546850786804
 30
0.0000000000000027
 10
53.875000000136801
 20
43.030354197619737
 30
0.0000000000000027
  0
SPLINE
  5
E9
100
AcDbEntity
  8
97
390
0
  6
Continuous
 62
   172
100
AcDbSpline
210
0.0
220
0.0
230
1.0
 70
     0
 71
     3
 72
    11
 73
     7
 74
     0
 42
0.000001
 43
0.000001
 40
0.0
 40
0.0
 40
0.0
 40
0.0
 40
0.0596521111767711
 40
0.3731014074511808
 40
0.6865507037255905
 40
1.0
 40
1.0
 40
1.0
 40
1.0
 10
80.999999999999702
 20
39.80682600431475
 30
0.0000000000000027
 10
80.691162484785437
 20
39.99220167837602
 30
0.0000000000000027
 10
78.734088781670962
 20
41.118851815317193
 30
0.0000000000000027
 10
74.8670285720615
 20
42.797530684868867
 30
0.0000000000000027
 10
69.339596810738357
 20
44.114574628255497
 30
0.0000000000000027
 10
65.73646325526083
 20
44.374999999999901
 30
0.0000000000000027
 10
64.000000000000114
 20
44.374999999999901
 30
0.0000000000000027
  0
SPLINE
  5
EA
100
AcDbEntity
  8
97
390
0
  6
Continuous
 62
   172
100
AcDbSpline
210
0.0
220
0.0
230
1.0
 70
     0
 71
     3
 72
     9
 73
     5
 74
     0
 42
0.000001
 43
0.000001
 40
0.0
 40
0.0
 40
0.0
 40
0.0
 40
0.5250103497765384
 40
1.0
 40
1.0
 40
1.0
 40
1.0
 10
52.249999999970768
 20
45.254707822133021
 30
0.0000000000000027
 10
54.348302794444898
 20
45.478251966089289
 30
0.0000000000000027
 10
58.321281925742319
 20
45.783085842573293
 30
0.0000000000000027
 10
62.193151686365304
 20
45.875
 30
0.0000000000000027
 10
63.999999999999936
 20
45.875
 30
0.0000000000000027
  0
SPLINE
  5
EB
100
AcDbEntity
  8
97
390
0
  6
Continuous
 62
   172
100
AcDbSpline
210
0.0
220
0.0
230
1.0
 70
     0
 71
     3
 72
    15
 73
    11
 74
     0
 42
0.000001
 43
0.000001
 40
0.0
 40
0.0
 40
0.0
 40
0.0
 40
0.125
 40
0.25
 40
0.375
 40
0.5
 40
0.625
 40
0.75
 40
0.875
 40
1.0
 40
1.0
 40
1.0
 40
1.0
 10
94.499999999999801
 20
20.375000000000188
 30
0.0000000000000027
 10
94.499999999999801
 20
21.861234132801439
 30
0.0000000000000027
 10
94.187387403049229
 20
24.94490344315302
 30
0.0000000000000027
 10
92.597882072435766
 20
29.701099401737931
 30
0.0000000000000027
 10
89.792729849927866
 20
34.309104534887794
 30
0.0000000000000027
 10
85.81972112275912
 20
38.448029385694149
 30
0.0000000000000027
 10
80.889049193964055
 20
41.821453122985247
 30
0.0000000000000027
 10
75.341217347930865
 20
44.228601939988373
 30
0.0000000000000027
 10
69.568841508266232
 20
45.603487502352195
 30
0.0000000000000027
 10
65.811040945062302
 20
45.874999999999901
 30
0.0000000000000027
 10
64.000000000000114
 20
45.874999999999901
 30
0.0000000000000027
  0
ENDSEC
  0
SECTION
  2
OBJECTS
  0
DICTIONARY
  5
19
100
AcDbDictionary
280
     0
281
     1
  3
ACAD_GROUP
350
1A
  3
ACAD_MLINESTYLE
350
1B
  3
ACAD_LAYOUT
350
1E
  3
ACAD_PLOTSETTINGS
350
22
  3
ACAD_PLOTSTYLENAME
350
1F
  3
ACAD_WIPEOUT_VARS
350
23
  0
DICTIONARY
  5
1A
102
{ACAD_REACTORS
330
19
102
}
100
AcDbDictionary
280
     0
281
     1
  0
DICTIONARY
  5
1B
102
{ACAD_REACTORS
330
19
102
}
100
AcDbDictionary
280
     0
281
     1
  3
Standard
350
1C
  0
MLINESTYLE
  5
1C
102
{ACAD_REACTORS
330
1B
102
}
100
AcDbMlineStyle
  2
Standard
 70
     0
  3

 62
     0
 51
90.0
 52
90.0
 71
     2
 49
0.5
 62
   256
  6
ByLayer
 49
-0.5
 62
   256
  6
ByLayer
  0
ACDBDICTIONARYWDFLT
  5
1F
102
{ACAD_REACTORS
330
19
102
}
100
AcDbDictionary
281
     1
  3
Normal
350
1D
100
AcDbDictionaryWithDefault
340
1D
  0
ACDBPLACEHOLDER
  5
1D
102
{ACAD_REACTORS
330
1F
102
}
  0
LAYOUT
  5
20
102
{ACAD_REACTORS
330
1E
102
}
100
AcDbPlotSettings
  1

  2

  4

  6

 40
0.0
 41
0.0
 42
0.0
 43
0.0
 44
0.0
 45
0.0
 46
0.0
 47
0.0
 48
0.0
 49
0.0
140
0.0
141
0.0
142
1.0
143
1.0
 70
  1024
 72
     0
 73
     0
 74
     0
  7

 75
     0
147
1.0
148
0.0
149
0.0
100
AcDbLayout
  1
Model
 70
     0
 71
     0
 10
0.0
 20
0.0
 11
0.0
 21
0.0
 12
0.0
 22
0.0
 32
0.0
 14
0.0
 24
0.0
 34
0.0
 15
0.0
 25
0.0
 35
0.0
146
0.0
 13
0.0
 23
0.0
 33
0.0
 16
0.0
 26
0.0
 36
0.0
 17
0.0
 27
0.0
 37
0.0
 76
     0
330
A
331
0
345
0
346
0
  0
LAYOUT
  5
21
102
{ACAD_REACTORS
330
1E
102
}
100
AcDbPlotSettings
  1

  2

  4

  6

 40
0.0
 41
0.0
 42
0.0
 43
0.0
 44
0.0
 45
0.0
 46
0.0
 47
0.0
 48
0.0
 49
0.0
140
0.0
141
0.0
142
1.0
143
1.0
 70
     0
 72
     0
 73
     0
 74
     0
  7

 75
     0
147
1.0
148
0.0
149
0.0
100
AcDbLayout
  1
Layout1
 70
     0
 71
     0
 10
0.0
 20
0.0
 11
0.0
 21
0.0
 12
0.0
 22
0.0
 32
0.0
 14
0.0
 24
0.0
 34
0.0
 15
0.0
 25
0.0
 35
0.0
146
0.0
 13
0.0
 23
0.0
 33
0.0
 16
0.0
 26
0.0
 36
0.0
 17
0.0
 27
0.0
 37
0.0
 76
     0
330
B
331
0
345
0
346
0
  0
DICTIONARY
  5
1E
102
{ACAD_REACTORS
330
19
102
}
100
AcDbDictionary
280
     0
281
     1
  3
Layout1
350
21
  3
Model
350
20
  0
DICTIONARY
  5
22
102
{ACAD_REACTORS
330
19
102
}
100
AcDbDictionary
280
     0
281
     1
  0
WIPEOUTVARIABLES
  5
23
100
AcDbWipeoutVariables
 70
     1
  0
ENDSEC
  0
EOF
