  0
SECTION
  2
HEADER
  9
$ACADVER
  1
AC1018
  9
$ACADMAINTVER
 70
     0
  9
$DWGCODEPAGE
  3
ANSI_1252
  9
$INSBASE
 10
0.0
 20
0.0
 30
0.0
  9
$EXTMIN
 10
0.0
 20
0.0
 30
0.0
  9
$EXTMAX
 10
11.0
 20
8.5
 30
0.0
  9
$LIMMIN
 10
0.0
 20
0.0
  9
$LIMMAX
 10
11.0
 20
8.5
  9
$ORTHOMODE
 70
     0
  9
$REGENMODE
 70
     1
  9
$FILLMODE
 70
     1
  9
$QTEXTMODE
 70
     0
  9
$MIRRTEXT
 70
     0
  9
$LTSCALE
 40
1.0
  9
$ATTMODE
 70
     1
  9
$TEXTSIZE
 40
0.25
  9
$TRACEWID
 40
1.0
  9
$TEXTSTYLE
  7
Standard
  9
$CLAYER
  8
0
  9
$CELTYPE
  6
ByLayer
  9
$CECOLOR
 62
     7
  9
$CELTSCALE
 40
1.0
  9
$DISPSILH
 70
     0
  9
$DIMSCALE
 40
1.0
  9
$DIMASZ
 40
0.18
  9
$DIMEXO
 40
0.0625
  9
$DIMDLI
 40
0.38
  9
$DIMRND
 40
0.0000001
  9
$DIMDLE
 40
0.0
  9
$DIMEXE
 40
0.18
  9
$DIMTP
 40
0.0
  9
$DIMTM
 40
0.0
  9
$DIMTXT
 40
0.18
  9
$DIMCEN
 40
0.09
  9
$DIMTSZ
 40
0.0
  9
$DIMTOL
 70
     0
  9
$DIMLIM
 70
     0
  9
$DIMTIH
 70
     1
  9
$DIMTOH
 70
     1
  9
$DIMSE1
 70
     0
  9
$DIMSE2
 70
     0
  9
$DIMTAD
 70
     0
  9
$DIMZIN
 70
     0
  9
$DIMBLK
  1

  9
$DIMASO
 70
     1
  9
$DIMSHO
 70
     1
  9
$DIMPOST
  1

  9
$DIMAPOST
  1

  9
$DIMALT
 70
     0
  9
$DIMALTD
 70
     2
  9
$DIMALTF
 40
25.4
  9
$DIMLFAC
 40
1.0
  9
$DIMTOFL
 70
     0
  9
$DIMTVP
 40
0.0
  9
$DIMTIX
 70
     0
  9
$DIMSOXD
 70
     0
  9
$DIMSAH
 70
     0
  9
$DIMBLK1
  1

  9
$DIMBLK2
  1

  9
$DIMSTYLE
  2
Standard
  9
$DIMCLRD
 70
     0
  9
$DIMCLRE
 70
     0
  9
$DIMCLRT
 70
     0
  9
$DIMTFAC
 40
1.0
  9
$DIMGAP
 40
0.09
  9
$DIMJUST
 70
     0
  9
$DIMSD1
 70
     0
  9
$DIMSD2
 70
     0
  9
$DIMTOLJ
 70
     1
  9
$DIMTZIN
 70
     0
  9
$DIMALTZ
 70
     0
  9
$DIMALTTZ
 70
     0
  9
$DIMUPT
 70
     0
  9
$DIMDEC
 70
     4
  9
$DIMTDEC
 70
     4
  9
$DIMALTU
 70
     2
  9
$DIMALTTD
 70
     2
  9
$DIMTXSTY
  7
STANDARD0
  9
$DIMAUNIT
 70
     0
  9
$DIMADEC
 70
     4
  9
$DIMALTRND
 40
0.0000001
  9
$DIMAZIN
 70
     0
  9
$DIMDSEP
 70
    46
  9
$DIMATFIT
 70
     3
  9
$DIMFRAC
 70
     0
  9
$DIMLDRBLK
  1

  9
$DIMLUNIT
 70
     2
  9
$DIMLWD
 70
    -2
  9
$DIMLWE
 70
    -2
  9
$DIMTMOVE
 70
     0
  9
$LUNITS
 70
     2
  9
$LUPREC
 70
     2
  9
$SKETCHINC
 40
1.0
  9
$FILLETRAD
 40
1.0
  9
$AUNITS
 70
     0
  9
$AUPREC
 70
     2
  9
$MENU
  1
.
  9
$ELEVATION
 40
0.0
  9
$PELEVATION
 40
0.0
  9
$THICKNESS
 40
0.0
  9
$LIMCHECK
 70
     0
  9
$CHAMFERA
 40
0.5
  9
$CHAMFERB
 40
0.5
  9
$CHAMFERC
 40
1.0
  9
$CHAMFERD
 40
0.0
  9
$SKPOLY
 70
     0
  9
$TDCREATE
 40
2454345.254308449
  9
$TDUCREATE
 40
2454345.420975116
  9
$TDUPDATE
 40
2454345.254308461
  9
$TDUUPDATE
 40
2454345.420975127
  9
$TDINDWG
 40
0.0
  9
$TDUSRTIMER
 40
0.0
  9
$USRTIMER
 70
     1
  9
$ANGBASE
 50
0.0
  9
$ANGDIR
 70
     0
  9
$PDMODE
 70
     0
  9
$PDSIZE
 40
0.0
  9
$PLINEWID
 40
0.0
  9
$SPLFRAME
 70
     0
  9
$SPLINETYPE
 70
     5
  9
$SPLINESEGS
 70
    20
  9
$HANDSEED
  5
342
  9
$SURFTAB1
 70
     6
  9
$SURFTAB2
 70
     6
  9
$SURFTYPE
 70
     6
  9
$SURFU
 70
     6
  9
$SURFV
 70
     6
  9
$UCSBASE
  2

  9
$UCSNAME
  2

  9
$UCSORG
 10
0.00000000000001
 20
0.00000000000001
 30
32.00000000003963
  9
$UCSXDIR
 10
1.0
 20
0.0
 30
0.0
  9
$UCSYDIR
 10
0.0
 20
1.0
 30
0.0
  9
$UCSORTHOREF
  2

  9
$UCSORTHOVIEW
 70
     0
  9
$UCSORGTOP
 10
0.0
 20
0.0
 30
0.0
  9
$UCSORGBOTTOM
 10
0.0
 20
0.0
 30
0.0
  9
$UCSORGLEFT
 10
0.0
 20
0.0
 30
0.0
  9
$UCSORGRIGHT
 10
0.0
 20
0.0
 30
0.0
  9
$UCSORGFRONT
 10
0.0
 20
0.0
 30
0.0
  9
$UCSORGBACK
 10
0.0
 20
0.0
 30
0.0
  9
$PUCSBASE
  2

  9
$PUCSNAME
  2

  9
$PUCSORG
 10
0.0
 20
0.0
 30
0.0
  9
$PUCSXDIR
 10
1.0
 20
0.0
 30
0.0
  9
$PUCSYDIR
 10
0.0
 20
1.0
 30
0.0
  9
$PUCSORTHOREF
  2

  9
$PUCSORTHOVIEW
 70
     0
  9
$PUCSORGTOP
 10
0.0
 20
0.0
 30
0.0
  9
$PUCSORGBOTTOM
 10
0.0
 20
0.0
 30
0.0
  9
$PUCSORGLEFT
 10
0.0
 20
0.0
 30
0.0
  9
$PUCSORGRIGHT
 10
0.0
 20
0.0
 30
0.0
  9
$PUCSORGFRONT
 10
0.0
 20
0.0
 30
0.0
  9
$PUCSORGBACK
 10
0.0
 20
0.0
 30
0.0
  9
$USERI1
 70
     0
  9
$USERI2
 70
     0
  9
$USERI3
 70
     0
  9
$USERI4
 70
     0
  9
$USERI5
 70
     0
  9
$USERR1
 40
0.0
  9
$USERR2
 40
0.0
  9
$USERR3
 40
0.0
  9
$USERR4
 40
0.0
  9
$USERR5
 40
0.0
  9
$WORLDVIEW
 70
     1
  9
$SHADEDGE
 70
     3
  9
$SHADEDIF
 70
    70
  9
$TILEMODE
 70
     1
  9
$MAXACTVP
 70
    64
  9
$PINSBASE
 10
0.0
 20
0.0
 30
0.0
  9
$PLIMCHECK
 70
     0
  9
$PEXTMIN
 10
0.0
 20
0.0
 30
0.0
  9
$PEXTMAX
 10
0.0
 20
0.0
 30
0.0
  9
$PLIMMIN
 10
0.0
 20
0.0
  9
$PLIMMAX
 10
0.0
 20
0.0
  9
$UNITMODE
 70
     0
  9
$VISRETAIN
 70
     1
  9
$PLINEGEN
 70
     0
  9
$PSLTSCALE
 70
     1
  9
$TREEDEPTH
 70
  3020
  9
$CMLSTYLE
  2
Standard
  9
$CMLJUST
 70
     0
  9
$CMLSCALE
 40
1.0
  9
$PROXYGRAPHICS
 70
     1
  9
$MEASUREMENT
 70
     0
  9
$CELWEIGHT
370
    -1
  9
$ENDCAPS
280
     0
  9
$JOINSTYLE
280
     0
  9
$LWDISPLAY
290
     0
  9
$INSUNITS
 70
     1
  9
$HYPERLINKBASE
  1

  9
$STYLESHEET
  1

  9
$XEDIT
290
     1
  9
$CEPSNTYPE
380
     0
  9
$PSTYLEMODE
290
     1
  9
$FINGERPRINTGUID
  2
{BE108D9D-2638-40F9-8791-3BFA580D026C}
  9
$VERSIONGUID
  2
{FAEB1C32-E019-11D5-929B-00C0DF256EC4}
  9
$EXTNAMES
290
     1
  9
$PSVPSCALE
 40
0.0
  9
$OLESTARTUP
290
     0
  9
$SORTENTS
280
   127
  9
$INDEXCTL
280
     0
  9
$HIDETEXT
280
     1
  9
$XCLIPFRAME
290
     0
  9
$HALOGAP
280
     0
  9
$OBSCOLOR
 70
   257
  9
$OBSLTYPE
280
     0
  9
$INTERSECTIONDISPLAY
280
     0
  9
$INTERSECTIONCOLOR
 70
   257
  9
$DIMASSOC
280
     2
  9
$PROJECTNAME
  1

  0
ENDSEC
  0
SECTION
  2
CLASSES
  0
CLASS
  1
ACDBDICTIONARYWDFLT
  2
AcDbDictionaryWithDefault
  3
ObjectDBX Classes
 90
        0
 91
        3
280
     0
281
     0
  0
CLASS
  1
VISUALSTYLE
  2
AcDbVisualStyle
  3
ObjectDBX Classes
 90
     4095
 91
        3
280
     0
281
     0
  0
CLASS
  1
TCOPTIONALDATA
  2
TcOptionalData
  3
ExTcadCustObjs|Description: TurboCAD extension data object
 90
        0
 91
        3
280
     0
281
     0
  0
ENDSEC
  0
SECTION
  2
TABLES
  0
TABLE
  2
VPORT
  5
8
330
0
100
AcDbSymbolTable
 70
     1
  0
VPORT
  5
29
330
8
100
AcDbSymbolTableRecord
100
AcDbViewportTableRecord
  2
*Active
 70
     0
 10
0.0
 20
0.0
 11
1.0
 21
1.0
 12
0.0
 22
0.0
 13
0.0
 23
0.0
 14
0.5
 24
0.5
 15
0.5
 25
0.5
 16
1.0
 26
-1.0
 36
1.0
 17
43.686302719933
 27
50.05346657480654
 37
6.367163854873537
 40
112.8567767339986
 41
1.198150594451783
 42
50.0
 43
0.0
 44
0.0
 50
0.0
 51
0.0
 71
     0
 72
   100
 73
     1
 74
     3
 75
     0
 76
     0
 77
     0
 78
     0
281
     0
 65
     1
110
0.0
120
0.0
130
0.0
111
1.0
121
0.0
131
0.0
112
0.0
122
1.0
132
0.0
 79
     0
146
0.0
  0
ENDTAB
  0
TABLE
  2
LTYPE
  5
5
330
0
100
AcDbSymbolTable
 70
    12
  0
LTYPE
  5
14
330
5
100
AcDbSymbolTableRecord
100
AcDbLinetypeTableRecord
  2
ByBlock
 70
     0
  3

 72
    65
 73
     0
 40
0.0
  0
LTYPE
  5
15
330
5
100
AcDbSymbolTableRecord
100
AcDbLinetypeTableRecord
  2
ByLayer
 70
     0
  3

 72
    65
 73
     0
 40
0.0
  0
LTYPE
  5
16
330
5
100
AcDbSymbolTableRecord
100
AcDbLinetypeTableRecord
  2
Continuous
 70
     0
  3
Solid line
 72
    65
 73
     0
 40
0.0
  0
LTYPE
  5
40
330
5
100
AcDbSymbolTableRecord
100
AcDbLinetypeTableRecord
  2
BORDER
 70
     0
  3
BORDER
 72
    65
 73
     6
 40
1.75
 49
0.5
 74
     0
 49
-0.25
 74
     0
 49
0.5
 74
     0
 49
-0.25
 74
     0
 49
0.0
 74
     0
 49
-0.25
 74
     0
  0
LTYPE
  5
41
330
5
100
AcDbSymbolTableRecord
100
AcDbLinetypeTableRecord
  2
CENTER
 70
     0
  3
CENTER
 72
    65
 73
     4
 40
2.0
 49
1.25
 74
     0
 49
-0.25
 74
     0
 49
0.25
 74
     0
 49
-0.25
 74
     0
  0
LTYPE
  5
42
330
5
100
AcDbSymbolTableRecord
100
AcDbLinetypeTableRecord
  2
DASHDOT
 70
     0
  3
DASHDOT
 72
    65
 73
     4
 40
1.0
 49
0.5
 74
     0
 49
-0.25
 74
     0
 49
0.0
 74
     0
 49
-0.25
 74
     0
  0
LTYPE
  5
43
330
5
100
AcDbSymbolTableRecord
100
AcDbLinetypeTableRecord
  2
DASHED
 70
     0
  3
DASHED
 72
    65
 73
     2
 40
0.75
 49
0.5
 74
     0
 49
-0.25
 74
     0
  0
LTYPE
  5
44
330
5
100
AcDbSymbolTableRecord
100
AcDbLinetypeTableRecord
  2
DIVIDE
 70
     0
  3
DIVIDE
 72
    65
 73
     6
 40
1.25
 49
0.5
 74
     0
 49
-0.25
 74
     0
 49
0.0
 74
     0
 49
-0.25
 74
     0
 49
0.0
 74
     0
 49
-0.25
 74
     0
  0
LTYPE
  5
45
330
5
100
AcDbSymbolTableRecord
100
AcDbLinetypeTableRecord
  2
DOT
 70
     0
  3
DOT
 72
    65
 73
     2
 40
0.25
 49
0.0
 74
     0
 49
-0.25
 74
     0
  0
LTYPE
  5
46
330
5
100
AcDbSymbolTableRecord
100
AcDbLinetypeTableRecord
  2
HIDDEN
 70
     0
  3
HIDDEN
 72
    65
 73
     2
 40
0.5
 49
0.25
 74
     0
 49
-0.25
 74
     0
  0
LTYPE
  5
47
330
5
100
AcDbSymbolTableRecord
100
AcDbLinetypeTableRecord
  2
PHANTOM
 70
     0
  3
PHANTOM
 72
    65
 73
     6
 40
2.5
 49
1.25
 74
     0
 49
-0.25
 74
     0
 49
0.25
 74
     0
 49
-0.25
 74
     0
 49
0.25
 74
     0
 49
-0.25
 74
     0
  0
LTYPE
  5
48
330
5
100
AcDbSymbolTableRecord
100
AcDbLinetypeTableRecord
  2
$INVISIBLE
 70
     0
  3
$INVISIBLE
 72
    65
 73
     2
 40
200.0
 49
-100.0
 74
     0
 49
-100.0
 74
     0
  0
LTYPE
  5
49
330
5
100
AcDbSymbolTableRecord
100
AcDbLinetypeTableRecord
  2
$SNAPEXT
 70
     0
  3
$SNAPEXT
 72
    65
 73
     2
 40
0.04
 49
0.02
 74
     0
 49
-0.02
 74
     0
  0
LTYPE
  5
4A
330
5
100
AcDbSymbolTableRecord
100
AcDbLinetypeTableRecord
  2
$AUXILIARY
 70
     0
  3
$AUXILIARY
 72
    65
 73
     2
 40
0.1
 49
0.05
 74
     0
 49
-0.05
 74
     0
  0
ENDTAB
  0
TABLE
  2
LAYER
  5
2
330
0
100
AcDbSymbolTable
 70
     2
  0
LAYER
  5
10
330
2
100
AcDbSymbolTableRecord
100
AcDbLayerTableRecord
  2
0
 70
     0
 62
     7
  6
Continuous
370
     0
390
F
  0
LAYER
  5
4B
330
2
100
AcDbSymbolTableRecord
100
AcDbLayerTableRecord
  2
1
 70
     0
 62
     7
  6
Continuous
370
     0
390
F
  0
ENDTAB
  0
TABLE
  2
STYLE
  5
3
330
0
100
AcDbSymbolTable
 70
     3
  0
STYLE
  5
11
330
3
100
AcDbSymbolTableRecord
100
AcDbTextStyleTableRecord
  2
Standard
 70
     0
 40
0.0
 41
1.0
 50
0.0
 71
     0
 42
0.25
  3
txt
  4

1001
ACAD
1000
Times New Roman
1071
      290
  0
STYLE
  5
55
330
3
100
AcDbSymbolTableRecord
100
AcDbTextStyleTableRecord
  2
Text Style 1
 70
     0
 40
0.0
 41
1.0
 50
0.0
 71
     0
 42
0.2000000029802322
  3
TXT.SHX
  4

  0
STYLE
  5
56
330
3
100
AcDbSymbolTableRecord
100
AcDbTextStyleTableRecord
  2
STANDARD0
 70
     0
 40
0.0
 41
1.0
 50
0.0
 71
     0
 42
0.2000000029802322
  3
TXT.SHX
  4

  0
ENDTAB
  0
TABLE
  2
VIEW
  5
6
330
0
100
AcDbSymbolTable
 70
     9
  0
VIEW
  5
4C
330
6
100
AcDbSymbolTableRecord
100
AcDbViewTableRecord
  2
View_0
 70
     0
 40
8.267716535433072
 10
5.846456692913386
 20
4.133858267716536
 41
11.69291338582677
 11
0.0
 21
0.0
 31
1.0
 12
0.0
 22
0.0
 32
0.0
 42
50.0
 43
0.0
 44
0.0
 50
0.0
 71
     0
281
     0
 72
     0
  0
VIEW
  5
4D
330
6
100
AcDbSymbolTableRecord
100
AcDbViewTableRecord
  2
TOP
 70
     0
 40
9.757936
 10
0.0
 20
0.0
 41
13.137457
 11
0.0
 21
0.0
 31
1.0
 12
0.0
 22
0.0
 32
0.0
 42
50.0
 43
0.0
 44
0.0
 50
0.0
 71
     0
281
     0
 72
     0
  0
VIEW
  5
4E
330
6
100
AcDbSymbolTableRecord
100
AcDbViewTableRecord
  2
FRONT
 70
     0
 40
57.159833
 10
0.0
 20
0.0
 41
13.137457
 11
0.0
 21
-1.0
 31
6.123031769111886E-17
 12
0.0
 22
0.0
 32
-0.0000000000000001
 42
50.0
 43
0.0
 44
0.0
 50
0.0
 71
     0
281
     0
 72
     0
  0
VIEW
  5
4F
330
6
100
AcDbSymbolTableRecord
100
AcDbViewTableRecord
  2
RIGHT
 70
     0
 40
57.159833
 10
0.0
 20
0.0
 41
9.757936
 11
1.0
 21
-6.123031769111886E-17
 31
6.123031769111886E-17
 12
0.0
 22
0.0000000000000001
 32
-0.0000000000000001
 42
50.0
 43
0.0
 44
0.0
 50
0.0
 71
     0
281
     0
 72
     0
  0
VIEW
  5
50
330
6
100
AcDbSymbolTableRecord
100
AcDbViewTableRecord
  2
BACK
 70
     0
 40
57.159833
 10
0.0
 20
0.0
 41
13.137457
 11
1.224606353822377E-16
 21
1.0
 31
6.123031769111886E-17
 12
-0.0000000000000001
 22
0.0
 32
-0.0000000000000001
 42
50.0
 43
0.0
 44
0.0
 50
0.0
 71
     0
281
     0
 72
     0
  0
VIEW
  5
51
330
6
100
AcDbSymbolTableRecord
100
AcDbViewTableRecord
  2
BOTTOM
 70
     0
 40
9.757936
 10
0.0
 20
0.0
 41
13.137457
 11
-1.224606353822377E-16
 21
0.0
 31
-1.0
 12
0.0000000000000001
 22
0.0
 32
0.0
 42
50.0
 43
0.0
 44
0.0
 50
180.0
 71
     0
281
     0
 72
     0
  0
VIEW
  5
52
330
6
100
AcDbSymbolTableRecord
100
AcDbViewTableRecord
  2
LEFT
 70
     0
 40
57.159833
 10
0.0
 20
0.0
 41
9.757936
 11
-1.0
 21
-6.123031769111886E-17
 31
6.123031769111886E-17
 12
0.0
 22
0.0000000000000001
 32
-0.0000000000000001
 42
50.0
 43
0.0
 44
0.0
 50
0.0
 71
     0
281
     0
 72
     0
  0
VIEW
  5
53
330
6
100
AcDbSymbolTableRecord
100
AcDbViewTableRecord
  2
TFR-ISO
 70
     0
 40
56.017813
 10
0.0
 20
0.0
 41
16.189487
 11
0.5773502691896257
 21
-0.5773502691896258
 31
0.5773502691896257
 12
-0.0000002691896257
 22
0.0000002691896257
 32
-0.0000002691896257
 42
50.0
 43
0.0
 44
0.0
 50
0.0
 71
     0
281
     0
 72
     0
  0
VIEW
  5
54
330
6
100
AcDbSymbolTableRecord
100
AcDbViewTableRecord
  2
TFR-TRI
 70
     0
 40
59.116562
 10
0.0
 20
0.0
 41
15.860913
 11
0.7188729467706951
 21
-0.5850489566797592
 31
0.3754189722019156
 12
0.0000000532293049
 22
-0.0000000433202409
 32
0.0000000277980845
 42
50.0
 43
0.0
 44
0.0
 50
0.0
 71
     0
281
     0
 72
     0
  0
ENDTAB
  0
TABLE
  2
UCS
  5
7
330
0
100
AcDbSymbolTable
 70
     0
  0
ENDTAB
  0
TABLE
  2
APPID
  5
9
330
0
100
AcDbSymbolTable
 70
     2
  0
APPID
  5
12
330
9
100
AcDbSymbolTableRecord
100
AcDbRegAppTableRecord
  2
ACAD
 70
     0
  0
APPID
  5
3F
330
9
100
AcDbSymbolTableRecord
100
AcDbRegAppTableRecord
  2
TCAD
 70
     0
  0
ENDTAB
  0
TABLE
  2
DIMSTYLE
  5
A
330
0
100
AcDbSymbolTable
 70
     1
100
AcDbDimStyleTable
  0
DIMSTYLE
105
27
330
A
100
AcDbSymbolTableRecord
100
AcDbDimStyleTableRecord
  2
Standard
 70
     0
 45
0.0000001
148
0.0000001
179
     4
340
56
  0
ENDTAB
  0
TABLE
  2
BLOCK_RECORD
  5
1
330
0
100
AcDbSymbolTable
 70
     2
  0
BLOCK_RECORD
  5
1F
330
1
100
AcDbSymbolTableRecord
100
AcDbBlockTableRecord
  2
*Model_Space
340
22
  0
BLOCK_RECORD
  5
1B
330
1
100
AcDbSymbolTableRecord
100
AcDbBlockTableRecord
  2
*Paper_Space
340
1E
  0
BLOCK_RECORD
  5
3B
330
1
100
AcDbSymbolTableRecord
100
AcDbBlockTableRecord
  2
*Paper_Space1
340
3C
  0
ENDTAB
  0
ENDSEC
  0
SECTION
  2
BLOCKS
  0
BLOCK
  5
20
330
1F
100
AcDbEntity
  8
0
100
AcDbBlockBegin
  2
*Model_Space
 70
     0
 71
     0
 10
0.0
 20
0.0
 30
0.0
  3
*Model_Space
  1

  0
ENDBLK
  5
21
330
1F
100
AcDbEntity
  8
0
100
AcDbBlockEnd
  0
BLOCK
  5
1C
330
1B
100
AcDbEntity
 67
     1
  8
0
100
AcDbBlockBegin
  2
*Paper_Space
 70
     0
 71
     0
 10
0.0
 20
0.0
 30
0.0
  3
*Paper_Space
  1

  0
ENDBLK
  5
1D
330
1B
100
AcDbEntity
 67
     1
  8
0
100
AcDbBlockEnd
  0
BLOCK
  5
3D
330
3B
100
AcDbEntity
  8
0
100
AcDbBlockBegin
  2
*Paper_Space1
 70
     0
 71
     0
 10
0.0
 20
0.0
 30
0.0
  3
*Paper_Space1
  1

  0
VIEWPORT
  5
33F
330
3B
100
AcDbEntity
  8
0
100
AcDbViewport
 10
5.5
 20
4.25
 30
0.0
 40
11.0
 41
8.5
 68
     1
 69
     1
 12
5.5
 22
4.25
 13
0.0
 23
0.0
 14
0.5
 24
0.5
 15
0.5
 25
0.5
 16
0.0
 26
0.0
 36
1.0
 17
0.0
 27
0.0
 37
0.0
 42
50.0
 43
0.0
 44
0.0
 45
8.5
 50
0.0
 51
0.0
 72
  1000
 90
    32800
  1

281
     0
 71
     1
 74
     0
110
0.0
120
0.0
130
0.0
111
1.0
121
0.0
131
0.0
112
0.0
122
1.0
132
0.0
 79
     0
146
0.0
170
     0
  0
ENDBLK
  5
3E
330
3B
100
AcDbEntity
  8
0
100
AcDbBlockEnd
  0
ENDSEC
  0
SECTION
  2
ENTITIES
  0
LINE
  5
59
102
{ACAD_XDICTIONARY
360
57
102
}
330
1F
100
AcDbEntity
  8
1
  6
Continuous
 62
   250
420
  2960685
100
AcDbLine
 10
48.49999999999998
 20
48.0
 30
32.00000000003964
 11
48.49999999999998
 21
60.5
 31
32.00000000003965
210
0.0
220
1.0
230
0.0
  0
LINE
  5
5C
102
{ACAD_XDICTIONARY
360
5A
102
}
330
1F
100
AcDbEntity
  8
1
  6
Continuous
 62
   250
420
  2960685
100
AcDbLine
 10
48.49999999999998
 20
48.0
 30
32.00000000003964
 11
32.99999999999998
 21
48.0
 31
32.00000000003964
210
0.0
220
1.0
230
0.0
  0
LINE
  5
5F
102
{ACAD_XDICTIONARY
360
5D
102
}
330
1F
100
AcDbEntity
  8
1
  6
Continuous
 62
   250
420
  2960685
100
AcDbLine
 10
48.49999999999998
 20
60.5
 30
32.00000000003965
 11
32.99999999999998
 21
60.5
 31
32.00000000003965
210
0.0
220
1.0
230
0.0
  0
LINE
  5
62
102
{ACAD_XDICTIONARY
360
60
102
}
330
1F
100
AcDbEntity
  8
1
  6
Continuous
 62
   215
420
 10834597
100
AcDbLine
 10
26.99999999999998
 20
48.0
 30
32.00000000003964
 11
51.49999999999998
 21
48.0
 31
32.00000000003964
210
0.0
220
1.0
230
0.0
  0
LINE
  5
65
102
{ACAD_XDICTIONARY
360
63
102
}
330
1F
100
AcDbEntity
  8
1
  6
Continuous
 62
   215
420
 10834597
100
AcDbLine
 10
97.00000099999997
 20
62.5
 30
32.00000000003965
 11
96.99999999999997
 21
64.0
 31
32.00000000003965
210
0.0
220
1.0
230
0.0
  0
LINE
  5
68
102
{ACAD_XDICTIONARY
360
66
102
}
330
1F
100
AcDbEntity
  8
1
  6
Continuous
 62
    11
420
 16744319
100
AcDbLine
 10
84.99999999999997
 20
1.999999999999998
 30
32.00000000003964
 11
84.99999999999997
 21
60.0
 31
32.00000000003965
210
0.0
220
1.0
230
0.0
  0
LINE
  5
6B
102
{ACAD_XDICTIONARY
360
69
102
}
330
1F
100
AcDbEntity
  8
1
  6
Continuous
 62
    11
420
 16744319
100
AcDbLine
 10
113.0
 20
1.999999999999998
 30
32.00000000003964
 11
113.0
 21
60.0
 31
32.00000000003965
210
0.0
220
1.0
230
0.0
  0
LINE
  5
6E
102
{ACAD_XDICTIONARY
360
6C
102
}
330
1F
100
AcDbEntity
  8
1
  6
Continuous
 62
    11
420
 16744319
100
AcDbLine
 10
113.0
 20
2.000000000000001
 30
32.00000000003964
 11
84.99999999999997
 21
2.000000000000001
 31
32.00000000003964
210
0.0
220
1.0
230
0.0
  0
LINE
  5
71
102
{ACAD_XDICTIONARY
360
6F
102
}
330
1F
100
AcDbEntity
  8
1
  6
Continuous
 62
    11
420
 16744319
100
AcDbLine
 10
84.99999999999997
 20
60.0
 30
32.00000000003965
 11
113.0
 21
60.0
 31
32.00000000003965
210
0.0
220
1.0
230
0.0
  0
LINE
  5
74
102
{ACAD_XDICTIONARY
360
72
102
}
330
1F
100
AcDbEntity
  8
1
  6
Continuous
 62
   250
420
  2960685
100
AcDbLine
 10
32.99999999999998
 20
48.0
 30
32.00000000003964
 11
32.99999999999998
 21
60.5
 31
32.00000000003965
210
0.0
220
1.0
230
0.0
  0
LINE
  5
77
102
{ACAD_XDICTIONARY
360
75
102
}
330
1F
100
AcDbEntity
  8
1
  6
Continuous
 62
   215
420
 10834597
100
AcDbLine
 10
51.49999999999998
 20
48.0
 30
32.00000000003964
 11
51.49999999999998
 21
57.078795
 31
32.00000000003964
210
0.0
220
1.0
230
0.0
  0
POLYLINE
  5
7A
102
{ACAD_XDICTIONARY
360
78
102
}
330
1F
100
AcDbEntity
  8
1
  6
Continuous
 62
   174
420
      165
100
AcDb2dPolyline
 66
     1
 10
0.0
 20
0.0
 30
-32.00000000003963
 70
   132
210
0.0
220
0.0
230
-1.0
 75
     6
  0
VERTEX
  5
7C
330
7A
100
AcDbEntity
  8
1
  6
Continuous
 62
   174
420
      165
100
AcDbVertex
100
AcDb2dVertex
 10
0.0000000000000252
 20
17.99999999999999
 30
-0.0000000000000011
 70
    16
  0
VERTEX
  5
7D
330
7A
100
AcDbEntity
  8
1
  6
Continuous
 62
   174
420
      165
100
AcDbVertex
100
AcDb2dVertex
 10
0.0000000000000252
 20
0.0
 30
0.0
 70
    16
  0
VERTEX
  5
7E
330
7A
100
AcDbEntity
  8
1
  6
Continuous
 62
   174
420
      165
100
AcDbVertex
100
AcDb2dVertex
 10
0.0000000000000252
 20
17.99999999999999
 30
-0.0000000000000011
 70
     8
  0
VERTEX
  5
7F
330
7A
100
AcDbEntity
  8
1
  6
Continuous
 62
   174
420
      165
100
AcDbVertex
100
AcDb2dVertex
 10
0.0000000000000252
 20
15.74999999999999
 30
-0.000000000000001
 70
     8
  0
VERTEX
  5
80
330
7A
100
AcDbEntity
  8
1
  6
Continuous
 62
   174
420
      165
100
AcDbVertex
100
AcDb2dVertex
 10
0.0000000000000252
 20
13.49999999999999
 30
-0.0000000000000008
 70
     8
  0
VERTEX
  5
81
330
7A
100
AcDbEntity
  8
1
  6
Continuous
 62
   174
420
      165
100
AcDbVertex
100
AcDb2dVertex
 10
0.0000000000000252
 20
11.25
 30
-0.0000000000000007
 70
     8
  0
VERTEX
  5
82
330
7A
100
AcDbEntity
  8
1
  6
Continuous
 62
   174
420
      165
100
AcDbVertex
100
AcDb2dVertex
 10
0.0000000000000252
 20
8.999999999999996
 30
-0.0000000000000006
 70
     8
  0
VERTEX
  5
83
330
7A
100
AcDbEntity
  8
1
  6
Continuous
 62
   174
420
      165
100
AcDbVertex
100
AcDb2dVertex
 10
0.0000000000000252
 20
6.749999999999996
 30
-0.0000000000000004
 70
     8
  0
VERTEX
  5
84
330
7A
100
AcDbEntity
  8
1
  6
Continuous
 62
   174
420
      165
100
AcDbVertex
100
AcDb2dVertex
 10
0.0000000000000252
 20
4.499999999999998
 30
-0.0000000000000003
 70
     8
  0
VERTEX
  5
85
330
7A
100
AcDbEntity
  8
1
  6
Continuous
 62
   174
420
      165
100
AcDbVertex
100
AcDb2dVertex
 10
0.0000000000000252
 20
2.25
 30
-0.0000000000000001
 70
     8
  0
VERTEX
  5
86
330
7A
100
AcDbEntity
  8
1
  6
Continuous
 62
   174
420
      165
100
AcDbVertex
100
AcDb2dVertex
 10
0.0000000000000252
 20
0.0
 30
0.0
 70
     8
  0
SEQEND
  5
7B
330
7A
100
AcDbEntity
  8
1
  6
Continuous
 62
   174
420
      165
  0
POLYLINE
  5
89
102
{ACAD_XDICTIONARY
360
87
102
}
330
1F
100
AcDbEntity
  8
1
  6
Continuous
 62
   174
420
      165
100
AcDb2dPolyline
 66
     1
 10
0.0
 20
0.0
 30
32.00000000003966
 70
   132
 75
     6
  0
VERTEX
  5
8B
330
89
100
AcDbEntity
  8
1
  6
Continuous
 62
   174
420
      165
100
AcDbVertex
100
AcDb2dVertex
 10
97.00018042246617
 20
64.0000000000793
 30
-0.0000000000000188
 70
    16
  0
VERTEX
  5
8C
330
89
100
AcDbEntity
  8
1
  6
Continuous
 62
   174
420
      165
100
AcDbVertex
100
AcDb2dVertex
 10
94.58528023075323
 20
64.00000000006328
 30
-0.0000000000000188
 70
    16
  0
VERTEX
  5
8D
330
89
100
AcDbEntity
  8
1
  6
Continuous
 62
   174
420
      165
100
AcDbVertex
100
AcDb2dVertex
 10
89.75549482320974
 20
63.91474634811788
 30
-0.0000000000000188
 70
    16
  0
VERTEX
  5
8E
330
89
100
AcDbEntity
  8
1
  6
Continuous
 62
   174
420
      165
100
AcDbVertex
100
AcDb2dVertex
 10
80.1083498969762
 20
63.39947358967
 30
-0.0000000000000187
 70
    16
  0
VERTEX
  5
8F
330
89
100
AcDbEntity
  8
1
  6
Continuous
 62
   174
420
      165
100
AcDbVertex
100
AcDb2dVertex
 10
68.09565292202421
 20
62.10143198587255
 30
-0.0000000000000183
 70
    16
  0
VERTEX
  5
90
330
89
100
AcDbEntity
  8
1
  6
Continuous
 62
   174
420
      165
100
AcDbVertex
100
AcDb2dVertex
 10
56.21963166027582
 20
59.8668843638619
 30
-0.0000000000000176
 70
    16
  0
VERTEX
  5
91
330
89
100
AcDbEntity
  8
1
  6
Continuous
 62
   174
420
      165
100
AcDbVertex
100
AcDb2dVertex
 10
46.86556495291244
 20
57.44291766383923
 30
-0.0000000000000169
 70
    16
  0
VERTEX
  5
92
330
89
100
AcDbEntity
  8
1
  6
Continuous
 62
   174
420
      165
100
AcDbVertex
100
AcDb2dVertex
 10
41.1036027401769
 20
55.63595315552851
 30
-0.0000000000000164
 70
    16
  0
VERTEX
  5
93
330
89
100
AcDbEntity
  8
1
  6
Continuous
 62
   174
420
      165
100
AcDbVertex
100
AcDb2dVertex
 10
36.55928297728907
 20
53.9980562320123
 30
-0.0000000000000159
 70
    16
  0
VERTEX
  5
94
330
89
100
AcDbEntity
  8
1
  6
Continuous
 62
   174
420
      165
100
AcDbVertex
100
AcDb2dVertex
 10
32.06637666019472
 20
52.223446668462
 30
-0.0000000000000154
 70
    16
  0
VERTEX
  5
95
330
89
100
AcDbEntity
  8
1
  6
Continuous
 62
   174
420
      165
100
AcDbVertex
100
AcDb2dVertex
 10
27.66497723320728
 20
50.22945664814792
 30
-0.0000000000000148
 70
    16
  0
VERTEX
  5
96
330
89
100
AcDbEntity
  8
1
  6
Continuous
 62
   174
420
      165
100
AcDbVertex
100
AcDb2dVertex
 10
23.38671022414424
 20
47.9853495702686
 30
-0.0000000000000141
 70
    16
  0
VERTEX
  5
97
330
89
100
AcDbEntity
  8
1
  6
Continuous
 62
   174
420
      165
100
AcDbVertex
100
AcDb2dVertex
 10
19.20982275735308
 20
45.55886815068958
 30
-0.0000000000000134
 70
    16
  0
VERTEX
  5
98
330
89
100
AcDbEntity
  8
1
  6
Continuous
 62
   174
420
      165
100
AcDbVertex
100
AcDb2dVertex
 10
14.21206655011553
 20
42.1571858435538
 30
-0.0000000000000124
 70
    16
  0
VERTEX
  5
99
330
89
100
AcDbEntity
  8
1
  6
Continuous
 62
   174
420
      165
100
AcDbVertex
100
AcDb2dVertex
 10
9.659555312692222
 20
38.17082353864461
 30
-0.0000000000000112
 70
    16
  0
VERTEX
  5
9A
330
89
100
AcDbEntity
  8
1
  6
Continuous
 62
   174
420
      165
100
AcDbVertex
100
AcDb2dVertex
 10
6.434235958503044
 20
34.56638461958396
 30
-0.0000000000000102
 70
    16
  0
VERTEX
  5
9B
330
89
100
AcDbEntity
  8
1
  6
Continuous
 62
   174
420
      165
100
AcDbVertex
100
AcDb2dVertex
 10
4.285915000711123
 20
31.64657067824488
 30
-0.0000000000000093
 70
    16
  0
VERTEX
  5
9C
330
89
100
AcDbEntity
  8
1
  6
Continuous
 62
   174
420
      165
100
AcDbVertex
100
AcDb2dVertex
 10
2.473553993110092
 20
28.4994628284653
 30
-0.0000000000000084
 70
    16
  0
VERTEX
  5
9D
330
89
100
AcDbEntity
  8
1
  6
Continuous
 62
   174
420
      165
100
AcDbVertex
100
AcDb2dVertex
 10
1.083666424559806
 20
25.14807927424952
 30
-0.0000000000000074
 70
    16
  0
VERTEX
  5
9E
330
89
100
AcDbEntity
  8
1
  6
Continuous
 62
   174
420
      165
100
AcDbVertex
100
AcDb2dVertex
 10
0.348971228482872
 20
22.20956858676859
 30
-0.0000000000000065
 70
    16
  0
VERTEX
  5
9F
330
89
100
AcDbEntity
  8
1
  6
Continuous
 62
   174
420
      165
100
AcDbVertex
100
AcDb2dVertex
 10
0.050387115013489
 20
19.81109878126787
 30
-0.0000000000000058
 70
    16
  0
VERTEX
  5
A0
330
89
100
AcDbEntity
  8
1
  6
Continuous
 62
   174
420
      165
100
AcDbVertex
100
AcDb2dVertex
 10
0.000005190688972
 20
18.60372629571521
 30
-0.0000000000000055
 70
    16
  0
VERTEX
  5
A1
330
89
100
AcDbEntity
  8
1
  6
Continuous
 62
   174
420
      165
100
AcDbVertex
100
AcDb2dVertex
 10
-0.0000000000000213
 20
17.99999999999999
 30
-0.0000000000000053
 70
    16
  0
VERTEX
  5
A2
330
89
100
AcDbEntity
  8
1
  6
Continuous
 62
   174
420
      165
100
AcDbVertex
100
AcDb2dVertex
 10
97.00018042246617
 20
64.0000000000793
 30
-0.0000000000000188
 70
     8
  0
VERTEX
  5
A3
330
89
100
AcDbEntity
  8
1
  6
Continuous
 62
   174
420
      165
100
AcDbVertex
100
AcDb2dVertex
 10
96.0945948551896
 20
63.99800092514855
 30
-0.0000000000000188
 70
     8
  0
VERTEX
  5
A4
330
89
100
AcDbEntity
  8
1
  6
Continuous
 62
   174
420
      165
100
AcDbVertex
100
AcDb2dVertex
 10
95.18902554987352
 20
63.99200003006074
 30
-0.0000000000000188
 70
     8
  0
VERTEX
  5
A5
330
89
100
AcDbEntity
  8
1
  6
Continuous
 62
   174
420
      165
100
AcDbVertex
100
AcDb2dVertex
 10
94.28349088561134
 20
63.98199180935445
 30
-0.0000000000000188
 70
     8
  0
VERTEX
  5
A6
330
89
100
AcDbEntity
  8
1
  6
Continuous
 62
   174
420
      165
100
AcDbVertex
100
AcDb2dVertex
 10
93.37800924149647
 20
63.9679707575683
 30
-0.0000000000000188
 70
     8
  0
VERTEX
  5
A7
330
89
100
AcDbEntity
  8
1
  6
Continuous
 62
   174
420
      165
100
AcDbVertex
100
AcDb2dVertex
 10
92.47259899662234
 20
63.94993136924084
 30
-0.0000000000000188
 70
     8
  0
VERTEX
  5
A8
330
89
100
AcDbEntity
  8
1
  6
Continuous
 62
   174
420
      165
100
AcDbVertex
100
AcDb2dVertex
 10
91.56727853008232
 20
63.92786813891074
 30
-0.0000000000000188
 70
     8
  0
VERTEX
  5
A9
330
89
100
AcDbEntity
  8
1
  6
Continuous
 62
   174
420
      165
100
AcDbVertex
100
AcDb2dVertex
 10
90.66206622096982
 20
63.90177556111655
 30
-0.0000000000000188
 70
     8
  0
VERTEX
  5
AA
330
89
100
AcDbEntity
  8
1
  6
Continuous
 62
   174
420
      165
100
AcDbVertex
100
AcDb2dVertex
 10
89.7569804483783
 20
63.87164813039688
 30
-0.0000000000000188
 70
     8
  0
VERTEX
  5
AB
330
89
100
AcDbEntity
  8
1
  6
Continuous
 62
   174
420
      165
100
AcDbVertex
100
AcDb2dVertex
 10
88.85206205456808
 20
63.83748117966399
 30
-0.0000000000000188
 70
     8
  0
VERTEX
  5
AC
330
89
100
AcDbEntity
  8
1
  6
Continuous
 62
   174
420
      165
100
AcDbVertex
100
AcDb2dVertex
 10
87.94730651740346
 20
63.79926818934493
 30
-0.0000000000000188
 70
     8
  0
VERTEX
  5
AD
330
89
100
AcDbEntity
  8
1
  6
Continuous
 62
   174
420
      165
100
AcDbVertex
100
AcDb2dVertex
 10
87.04273178513358
 20
63.75700327700031
 30
-0.0000000000000188
 70
     8
  0
VERTEX
  5
AE
330
89
100
AcDbEntity
  8
1
  6
Continuous
 62
   174
420
      165
100
AcDbVertex
100
AcDb2dVertex
 10
86.13835580600761
 20
63.7106805601907
 30
-0.0000000000000188
 70
     8
  0
VERTEX
  5
AF
330
89
100
AcDbEntity
  8
1
  6
Continuous
 62
   174
420
      165
100
AcDbVertex
100
AcDb2dVertex
 10
85.23419652827474
 20
63.6602941564767
 30
-0.0000000000000187
 70
     8
  0
VERTEX
  5
B0
330
89
100
AcDbEntity
  8
1
  6
Continuous
 62
   174
420
      165
100
AcDbVertex
100
AcDb2dVertex
 10
84.3302719001841
 20
63.6058381834189
 30
-0.0000000000000187
 70
     8
  0
VERTEX
  5
B1
330
89
100
AcDbEntity
  8
1
  6
Continuous
 62
   174
420
      165
100
AcDbVertex
100
AcDb2dVertex
 10
83.42659986998478
 20
63.54730675857784
 30
-0.0000000000000187
 70
     8
  0
VERTEX
  5
B2
330
89
100
AcDbEntity
  8
1
  6
Continuous
 62
   174
420
      165
100
AcDbVertex
100
AcDb2dVertex
 10
82.52319838592604
 20
63.48469399951412
 30
-0.0000000000000187
 70
     8
  0
VERTEX
  5
B3
330
89
100
AcDbEntity
  8
1
  6
Continuous
 62
   174
420
      165
100
AcDbVertex
100
AcDb2dVertex
 10
80.71728426597912
 20
63.34718357093875
 30
-0.0000000000000187
 70
     8
  0
VERTEX
  5
B4
330
89
100
AcDbEntity
  8
1
  6
Continuous
 62
   174
420
      165
100
AcDbVertex
100
AcDb2dVertex
 10
78.9127002100989
 20
63.19317294806591
 30
-0.0000000000000186
 70
     8
  0
VERTEX
  5
B5
330
89
100
AcDbEntity
  8
1
  6
Continuous
 62
   174
420
      165
100
AcDbVertex
100
AcDb2dVertex
 10
77.10962230479333
 20
63.02251080324647
 30
-0.0000000000000186
 70
     8
  0
VERTEX
  5
B6
330
89
100
AcDbEntity
  8
1
  6
Continuous
 62
   174
420
      165
100
AcDbVertex
100
AcDb2dVertex
 10
75.30822663657042
 20
62.83504580883127
 30
-0.0000000000000185
 70
     8
  0
VERTEX
  5
B7
330
89
100
AcDbEntity
  8
1
  6
Continuous
 62
   174
420
      165
100
AcDbVertex
100
AcDb2dVertex
 10
73.50868929193817
 20
62.63062663717115
 30
-0.0000000000000184
 70
     8
  0
VERTEX
  5
B8
330
89
100
AcDbEntity
  8
1
  6
Continuous
 62
   174
420
      165
100
AcDbVertex
100
AcDb2dVertex
 10
71.71118635740447
 20
62.40910196061699
 30
-0.0000000000000184
 70
     8
  0
VERTEX
  5
B9
330
89
100
AcDbEntity
  8
1
  6
Continuous
 62
   174
420
      165
100
AcDbVertex
100
AcDb2dVertex
 10
69.91589391947741
 20
62.17032045151962
 30
-0.0000000000000183
 70
     8
  0
VERTEX
  5
BA
330
89
100
AcDbEntity
  8
1
  6
Continuous
 62
   174
420
      165
100
AcDbVertex
100
AcDb2dVertex
 10
68.12298806466492
 20
61.9141307822299
 30
-0.0000000000000182
 70
     8
  0
VERTEX
  5
BB
330
89
100
AcDbEntity
  8
1
  6
Continuous
 62
   174
420
      165
100
AcDbVertex
100
AcDb2dVertex
 10
66.33265768333445
 20
61.64035839260306
 30
-0.0000000000000181
 70
     8
  0
VERTEX
  5
BC
330
89
100
AcDbEntity
  8
1
  6
Continuous
 62
   174
420
      165
100
AcDbVertex
100
AcDb2dVertex
 10
64.54514288129104
 20
61.34873579251171
 30
-0.0000000000000181
 70
     8
  0
VERTEX
  5
BD
330
89
100
AcDbEntity
  8
1
  6
Continuous
 62
   174
420
      165
100
AcDbVertex
100
AcDb2dVertex
 10
62.76069656819918
 20
61.03897225933289
 30
-0.000000000000018
 70
     8
  0
VERTEX
  5
BE
330
89
100
AcDbEntity
  8
1
  6
Continuous
 62
   174
420
      165
100
AcDbVertex
100
AcDb2dVertex
 10
60.9795716537234
 20
60.71077707044358
 30
-0.0000000000000179
 70
     8
  0
VERTEX
  5
BF
330
89
100
AcDbEntity
  8
1
  6
Continuous
 62
   174
420
      165
100
AcDbVertex
100
AcDb2dVertex
 10
59.20202104752823
 20
60.3638595032208
 30
-0.0000000000000178
 70
     8
  0
VERTEX
  5
C0
330
89
100
AcDbEntity
  8
1
  6
Continuous
 62
   174
420
      165
100
AcDbVertex
100
AcDb2dVertex
 10
57.42829765927814
 20
59.99792883504157
 30
-0.0000000000000177
 70
     8
  0
VERTEX
  5
C1
330
89
100
AcDbEntity
  8
1
  6
Continuous
 62
   174
420
      165
100
AcDbVertex
100
AcDb2dVertex
 10
55.65865439863764
 20
59.61269434328288
 30
-0.0000000000000176
 70
     8
  0
VERTEX
  5
C2
330
89
100
AcDbEntity
  8
1
  6
Continuous
 62
   174
420
      165
100
AcDbVertex
100
AcDb2dVertex
 10
53.89334417527125
 20
59.20786530532173
 30
-0.0000000000000174
 70
     8
  0
VERTEX
  5
C3
330
89
100
AcDbEntity
  8
1
  6
Continuous
 62
   174
420
      165
100
AcDbVertex
100
AcDb2dVertex
 10
53.01239677394722
 20
58.99800754975939
 30
-0.0000000000000174
 70
     8
  0
VERTEX
  5
C4
330
89
100
AcDbEntity
  8
1
  6
Continuous
 62
   174
420
      165
100
AcDbVertex
100
AcDb2dVertex
 10
52.13265019573329
 20
58.78311555104587
 30
-0.0000000000000173
 70
     8
  0
VERTEX
  5
C5
330
89
100
AcDbEntity
  8
1
  6
Continuous
 62
   174
420
      165
100
AcDbVertex
100
AcDb2dVertex
 10
51.25415877700487
 20
58.56312638323634
 30
-0.0000000000000172
 70
     8
  0
VERTEX
  5
C6
330
89
100
AcDbEntity
  8
1
  6
Continuous
 62
   174
420
      165
100
AcDbVertex
100
AcDb2dVertex
 10
50.3769768541374
 20
58.33797712038601
 30
-0.0000000000000172
 70
     8
  0
VERTEX
  5
C7
330
89
100
AcDbEntity
  8
1
  6
Continuous
 62
   174
420
      165
100
AcDbVertex
100
AcDb2dVertex
 10
49.50115876350633
 20
58.10760483655001
 30
-0.0000000000000171
 70
     8
  0
VERTEX
  5
C8
330
89
100
AcDbEntity
  8
1
  6
Continuous
 62
   174
420
      165
100
AcDbVertex
100
AcDb2dVertex
 10
48.62675884148707
 20
57.87194660578355
 30
-0.000000000000017
 70
     8
  0
VERTEX
  5
C9
330
89
100
AcDbEntity
  8
1
  6
Continuous
 62
   174
420
      165
100
AcDbVertex
100
AcDb2dVertex
 10
47.75383142445507
 20
57.63093950214179
 30
-0.000000000000017
 70
     8
  0
VERTEX
  5
CA
330
89
100
AcDbEntity
  8
1
  6
Continuous
 62
   174
420
      165
100
AcDbVertex
100
AcDb2dVertex
 10
46.88243084878576
 20
57.38452059967992
 30
-0.0000000000000169
 70
     8
  0
VERTEX
  5
CB
330
89
100
AcDbEntity
  8
1
  6
Continuous
 62
   174
420
      165
100
AcDbVertex
100
AcDb2dVertex
 10
46.01261193406262
 20
57.13262630508168
 30
-0.0000000000000168
 70
     8
  0
VERTEX
  5
CC
330
89
100
AcDbEntity
  8
1
  6
Continuous
 62
   174
420
      165
100
AcDbVertex
100
AcDb2dVertex
 10
45.14443143270136
 20
56.87519035554512
 30
-0.0000000000000167
 70
     8
  0
VERTEX
  5
CD
330
89
100
AcDbEntity
  8
1
  6
Continuous
 62
   174
420
      165
100
AcDbVertex
100
AcDb2dVertex
 10
44.27794658032573
 20
56.61214582089682
 30
-0.0000000000000167
 70
     8
  0
VERTEX
  5
CE
330
89
100
AcDbEntity
  8
1
  6
Continuous
 62
   174
420
      165
100
AcDbVertex
100
AcDb2dVertex
 10
43.41321461255946
 20
56.34342577096339
 30
-0.0000000000000166
 70
     8
  0
VERTEX
  5
CF
330
89
100
AcDbEntity
  8
1
  6
Continuous
 62
   174
420
      165
100
AcDbVertex
100
AcDb2dVertex
 10
42.55029276502635
 20
56.06896327557146
 30
-0.0000000000000165
 70
     8
  0
VERTEX
  5
D0
330
89
100
AcDbEntity
  8
1
  6
Continuous
 62
   174
420
      165
100
AcDbVertex
100
AcDb2dVertex
 10
41.68923827335013
 20
55.78869140454758
 30
-0.0000000000000164
 70
     8
  0
VERTEX
  5
D1
330
89
100
AcDbEntity
  8
1
  6
Continuous
 62
   174
420
      165
100
AcDbVertex
100
AcDb2dVertex
 10
40.83010837315452
 20
55.5025432277184
 30
-0.0000000000000163
 70
     8
  0
VERTEX
  5
D2
330
89
100
AcDbEntity
  8
1
  6
Continuous
 62
   174
420
      165
100
AcDbVertex
100
AcDb2dVertex
 10
39.97296030006332
 20
55.21045181491049
 30
-0.0000000000000163
 70
     8
  0
VERTEX
  5
D3
330
89
100
AcDbEntity
  8
1
  6
Continuous
 62
   174
420
      165
100
AcDbVertex
100
AcDb2dVertex
 10
39.54514807439789
 20
55.06215579955327
 30
-0.0000000000000162
 70
     8
  0
VERTEX
  5
D4
330
89
100
AcDbEntity
  8
1
  6
Continuous
 62
   174
420
      165
100
AcDbVertex
100
AcDb2dVertex
 10
39.11785720636896
 20
54.91234479769398
 30
-0.0000000000000162
 70
     8
  0
VERTEX
  5
D5
330
89
100
AcDbEntity
  8
1
  6
Continuous
 62
   174
420
      165
100
AcDbVertex
100
AcDb2dVertex
 10
38.69109928793103
 20
54.76100636436856
 30
-0.0000000000000161
 70
     8
  0
VERTEX
  5
D6
330
89
100
AcDbEntity
  8
1
  6
Continuous
 62
   174
420
      165
100
AcDbVertex
100
AcDb2dVertex
 10
38.26488591103858
 20
54.60812805461298
 30
-0.0000000000000161
 70
     8
  0
VERTEX
  5
D7
330
89
100
AcDbEntity
  8
1
  6
Continuous
 62
   174
420
      165
100
AcDbVertex
100
AcDb2dVertex
 10
37.8392286676461
 20
54.45369742346318
 30
-0.000000000000016
 70
     8
  0
VERTEX
  5
D8
330
89
100
AcDbEntity
  8
1
  6
Continuous
 62
   174
420
      165
100
AcDbVertex
100
AcDb2dVertex
 10
37.41413914970806
 20
54.29770202595513
 30
-0.000000000000016
 70
     8
  0
VERTEX
  5
D9
330
89
100
AcDbEntity
  8
1
  6
Continuous
 62
   174
420
      165
100
AcDbVertex
100
AcDb2dVertex
 10
36.98962894917895
 20
54.14012941712476
 30
-0.0000000000000159
 70
     8
  0
VERTEX
  5
DA
330
89
100
AcDbEntity
  8
1
  6
Continuous
 62
   174
420
      165
100
AcDbVertex
100
AcDb2dVertex
 10
36.56570965801325
 20
53.98096715200804
 30
-0.0000000000000159
 70
     8
  0
VERTEX
  5
DB
330
89
100
AcDbEntity
  8
1
  6
Continuous
 62
   174
420
      165
100
AcDbVertex
100
AcDb2dVertex
 10
36.14239327776182
 20
53.82020253045644
 30
-0.0000000000000158
 70
     8
  0
VERTEX
  5
DC
330
89
100
AcDbEntity
  8
1
  6
Continuous
 62
   174
420
      165
100
AcDbVertex
100
AcDb2dVertex
 10
35.7196934483609
 20
53.65782183158342
 30
-0.0000000000000158
 70
     8
  0
VERTEX
  5
DD
330
89
100
AcDbEntity
  8
1
  6
Continuous
 62
   174
420
      165
100
AcDbVertex
100
AcDb2dVertex
 10
35.29762421934313
 20
53.49381107931798
 30
-0.0000000000000158
 70
     8
  0
VERTEX
  5
DE
330
89
100
AcDbEntity
  8
1
  6
Continuous
 62
   174
420
      165
100
AcDbVertex
100
AcDb2dVertex
 10
34.87619964024116
 20
53.32815629758912
 30
-0.0000000000000157
 70
     8
  0
VERTEX
  5
DF
330
89
100
AcDbEntity
  8
1
  6
Continuous
 62
   174
420
      165
100
AcDbVertex
100
AcDb2dVertex
 10
34.45543376058763
 20
53.16084351032584
 30
-0.0000000000000157
 70
     8
  0
VERTEX
  5
E0
330
89
100
AcDbEntity
  8
1
  6
Continuous
 62
   174
420
      165
100
AcDbVertex
100
AcDb2dVertex
 10
34.03534062991515
 20
52.9918587414571
 30
-0.0000000000000156
 70
     8
  0
VERTEX
  5
E1
330
89
100
AcDbEntity
  8
1
  6
Continuous
 62
   174
420
      165
100
AcDbVertex
100
AcDb2dVertex
 10
33.61593429775635
 20
52.82118801491192
 30
-0.0000000000000156
 70
     8
  0
VERTEX
  5
E2
330
89
100
AcDbEntity
  8
1
  6
Continuous
 62
   174
420
      165
100
AcDbVertex
100
AcDb2dVertex
 10
33.1972288136439
 20
52.64881735461927
 30
-0.0000000000000155
 70
     8
  0
VERTEX
  5
E3
330
89
100
AcDbEntity
  8
1
  6
Continuous
 62
   174
420
      165
100
AcDbVertex
100
AcDb2dVertex
 10
32.36197844451464
 20
52.29891895246109
 30
-0.0000000000000154
 70
     8
  0
VERTEX
  5
E4
330
89
100
AcDbEntity
  8
1
  6
Continuous
 62
   174
420
      165
100
AcDbVertex
100
AcDb2dVertex
 10
31.52971120291927
 20
51.94204484618218
 30
-0.0000000000000153
 70
     8
  0
VERTEX
  5
E5
330
89
100
AcDbEntity
  8
1
  6
Continuous
 62
   174
420
      165
100
AcDbVertex
100
AcDb2dVertex
 10
30.70055062607581
 20
51.57807497093564
 30
-0.0000000000000152
 70
     8
  0
VERTEX
  5
E6
330
89
100
AcDbEntity
  8
1
  6
Continuous
 62
   174
420
      165
100
AcDbVertex
100
AcDb2dVertex
 10
29.87462025120231
 20
51.20688926187459
 30
-0.0000000000000151
 70
     8
  0
VERTEX
  5
E7
330
89
100
AcDbEntity
  8
1
  6
Continuous
 62
   174
420
      165
100
AcDbVertex
100
AcDb2dVertex
 10
29.0520436155168
 20
50.82836765415215
 30
-0.000000000000015
 70
     8
  0
VERTEX
  5
E8
330
89
100
AcDbEntity
  8
1
  6
Continuous
 62
   174
420
      165
100
AcDbVertex
100
AcDb2dVertex
 10
28.2329442562373
 20
50.44239008292143
 30
-0.0000000000000149
 70
     8
  0
VERTEX
  5
E9
330
89
100
AcDbEntity
  8
1
  6
Continuous
 62
   174
420
      165
100
AcDbVertex
100
AcDb2dVertex
 10
27.41744571058188
 20
50.04883648333556
 30
-0.0000000000000147
 70
     8
  0
VERTEX
  5
EA
330
89
100
AcDbEntity
  8
1
  6
Continuous
 62
   174
420
      165
100
AcDbVertex
100
AcDb2dVertex
 10
26.60567151576856
 20
49.64758679054766
 30
-0.0000000000000146
 70
     8
  0
VERTEX
  5
EB
330
89
100
AcDbEntity
  8
1
  6
Continuous
 62
   174
420
      165
100
AcDbVertex
100
AcDb2dVertex
 10
26.20122179139744
 20
49.44403707446
 30
-0.0000000000000146
 70
     8
  0
VERTEX
  5
EC
330
89
100
AcDbEntity
  8
1
  6
Continuous
 62
   174
420
      165
100
AcDbVertex
100
AcDb2dVertex
 10
25.79776229772835
 20
49.23851042388456
 30
-0.0000000000000145
 70
     8
  0
VERTEX
  5
ED
330
89
100
AcDbEntity
  8
1
  6
Continuous
 62
   174
420
      165
100
AcDbVertex
100
AcDb2dVertex
 10
25.39532129344829
 20
49.03098394384573
 30
-0.0000000000000144
 70
     8
  0
VERTEX
  5
EE
330
89
100
AcDbEntity
  8
1
  6
Continuous
 62
   174
420
      165
100
AcDbVertex
100
AcDb2dVertex
 10
24.99392703724426
 20
48.82143473936797
 30
-0.0000000000000144
 70
     8
  0
VERTEX
  5
EF
330
89
100
AcDbEntity
  8
1
  6
Continuous
 62
   174
420
      165
100
AcDbVertex
100
AcDb2dVertex
 10
24.59360778780324
 20
48.60983991547571
 30
-0.0000000000000143
 70
     8
  0
VERTEX
  5
F0
330
89
100
AcDbEntity
  8
1
  6
Continuous
 62
   174
420
      165
100
AcDbVertex
100
AcDb2dVertex
 10
24.19439180381223
 20
48.39617657719335
 30
-0.0000000000000142
 70
     8
  0
VERTEX
  5
F1
330
89
100
AcDbEntity
  8
1
  6
Continuous
 62
   174
420
      165
100
AcDbVertex
100
AcDb2dVertex
 10
23.79630734395822
 20
48.18042182954536
 30
-0.0000000000000142
 70
     8
  0
VERTEX
  5
F2
330
89
100
AcDbEntity
  8
1
  6
Continuous
 62
   174
420
      165
100
AcDbVertex
100
AcDb2dVertex
 10
23.39938266692822
 20
47.96255277755612
 30
-0.0000000000000141
 70
     8
  0
VERTEX
  5
F3
330
89
100
AcDbEntity
  8
1
  6
Continuous
 62
   174
420
      165
100
AcDbVertex
100
AcDb2dVertex
 10
23.00364565320155
 20
47.74254687480828
 30
-0.0000000000000141
 70
     8
  0
VERTEX
  5
F4
330
89
100
AcDbEntity
  8
1
  6
Continuous
 62
   174
420
      165
100
AcDbVertex
100
AcDb2dVertex
 10
22.6091226704269
 20
47.52038296911711
 30
-0.000000000000014
 70
     8
  0
VERTEX
  5
F5
330
89
100
AcDbEntity
  8
1
  6
Continuous
 62
   174
420
      165
100
AcDbVertex
100
AcDb2dVertex
 10
22.21583970804526
 20
47.29604025685604
 30
-0.0000000000000139
 70
     8
  0
VERTEX
  5
F6
330
89
100
AcDbEntity
  8
1
  6
Continuous
 62
   174
420
      165
100
AcDbVertex
100
AcDb2dVertex
 10
21.82382275549764
 20
47.06949793439856
 30
-0.0000000000000139
 70
     8
  0
VERTEX
  5
F7
330
89
100
AcDbEntity
  8
1
  6
Continuous
 62
   174
420
      165
100
AcDbVertex
100
AcDb2dVertex
 10
21.43309780222506
 20
46.8407351981181
 30
-0.0000000000000138
 70
     8
  0
VERTEX
  5
F8
330
89
100
AcDbEntity
  8
1
  6
Continuous
 62
   174
420
      165
100
AcDbVertex
100
AcDb2dVertex
 10
21.04369083766853
 20
46.60973124438815
 30
-0.0000000000000137
 70
     8
  0
VERTEX
  5
F9
330
89
100
AcDbEntity
  8
1
  6
Continuous
 62
   174
420
      165
100
AcDbVertex
100
AcDb2dVertex
 10
20.65562785126905
 20
46.37646526958214
 30
-0.0000000000000137
 70
     8
  0
VERTEX
  5
FA
330
89
100
AcDbEntity
  8
1
  6
Continuous
 62
   174
420
      165
100
AcDbVertex
100
AcDb2dVertex
 10
20.26893483246763
 20
46.14091647007353
 30
-0.0000000000000136
 70
     8
  0
VERTEX
  5
FB
330
89
100
AcDbEntity
  8
1
  6
Continuous
 62
   174
420
      165
100
AcDbVertex
100
AcDb2dVertex
 10
19.49978559689808
 20
45.66287849901439
 30
-0.0000000000000134
 70
     8
  0
VERTEX
  5
FC
330
89
100
AcDbEntity
  8
1
  6
Continuous
 62
   174
420
      165
100
AcDbVertex
100
AcDb2dVertex
 10
18.73656575386327
 20
45.17540748505849
 30
-0.0000000000000133
 70
     8
  0
VERTEX
  5
FD
330
89
100
AcDbEntity
  8
1
  6
Continuous
 62
   174
420
      165
100
AcDbVertex
100
AcDb2dVertex
 10
17.97962086774169
 20
44.67828489862561
 30
-0.0000000000000132
 70
     8
  0
VERTEX
  5
FE
330
89
100
AcDbEntity
  8
1
  6
Continuous
 62
   174
420
      165
100
AcDbVertex
100
AcDb2dVertex
 10
17.22929650291179
 20
44.17129221013553
 30
-0.000000000000013
 70
     8
  0
VERTEX
  5
FF
330
89
100
AcDbEntity
  8
1
  6
Continuous
 62
   174
420
      165
100
AcDbVertex
100
AcDb2dVertex
 10
16.48593822375205
 20
43.65421089000807
 30
-0.0000000000000129
 70
     8
  0
VERTEX
  5
100
330
89
100
AcDbEntity
  8
1
  6
Continuous
 62
   174
420
      165
100
AcDbVertex
100
AcDb2dVertex
 10
15.74989159464092
 20
43.12682240866299
 30
-0.0000000000000127
 70
     8
  0
VERTEX
  5
101
330
89
100
AcDbEntity
  8
1
  6
Continuous
 62
   174
420
      165
100
AcDbVertex
100
AcDb2dVertex
 10
15.02150217995688
 20
42.58890823652008
 30
-0.0000000000000125
 70
     8
  0
VERTEX
  5
102
330
89
100
AcDbEntity
  8
1
  6
Continuous
 62
   174
420
      165
100
AcDbVertex
100
AcDb2dVertex
 10
14.30111554407838
 20
42.04024984399912
 30
-0.0000000000000124
 70
     8
  0
VERTEX
  5
103
330
89
100
AcDbEntity
  8
1
  6
Continuous
 62
   174
420
      165
100
AcDbVertex
100
AcDb2dVertex
 10
13.58911701581943
 20
41.48062310418663
 30
-0.0000000000000122
 70
     8
  0
VERTEX
  5
104
330
89
100
AcDbEntity
  8
1
  6
Continuous
 62
   174
420
      165
100
AcDbVertex
100
AcDb2dVertex
 10
12.88605098173614
 20
40.90978150083593
 30
-0.000000000000012
 70
     8
  0
VERTEX
  5
105
330
89
100
AcDbEntity
  8
1
  6
Continuous
 62
   174
420
      165
100
AcDbVertex
100
AcDb2dVertex
 10
12.19250159282016
 20
40.32747292036706
 30
-0.0000000000000119
 70
     8
  0
VERTEX
  5
106
330
89
100
AcDbEntity
  8
1
  6
Continuous
 62
   174
420
      165
100
AcDbVertex
100
AcDb2dVertex
 10
11.50905300006313
 20
39.73344524920007
 30
-0.0000000000000117
 70
     8
  0
VERTEX
  5
107
330
89
100
AcDbEntity
  8
1
  6
Continuous
 62
   174
420
      165
100
AcDbVertex
100
AcDb2dVertex
 10
10.83628935445669
 20
39.127446373755
 30
-0.0000000000000115
 70
     8
  0
VERTEX
  5
108
330
89
100
AcDbEntity
  8
1
  6
Continuous
 62
   174
420
      165
100
AcDbVertex
100
AcDb2dVertex
 10
10.17479480699249
 20
38.50922418045187
 30
-0.0000000000000113
 70
     8
  0
VERTEX
  5
109
330
89
100
AcDbEntity
  8
1
  6
Continuous
 62
   174
420
      165
100
AcDbVertex
100
AcDb2dVertex
 10
9.525153508662175
 20
37.87852655571074
 30
-0.0000000000000112
 70
     8
  0
VERTEX
  5
10A
330
89
100
AcDbEntity
  8
1
  6
Continuous
 62
   174
420
      165
100
AcDbVertex
100
AcDb2dVertex
 10
8.887949610457387
 20
37.23510138595167
 30
-0.000000000000011
 70
     8
  0
VERTEX
  5
10B
330
89
100
AcDbEntity
  8
1
  6
Continuous
 62
   174
420
      165
100
AcDbVertex
100
AcDb2dVertex
 10
8.574202351450397
 20
36.90853957065456
 30
-0.0000000000000109
 70
     8
  0
VERTEX
  5
10C
330
89
100
AcDbEntity
  8
1
  6
Continuous
 62
   174
420
      165
100
AcDbVertex
100
AcDb2dVertex
 10
8.263832206277339
 20
36.57871563325781
 30
-0.0000000000000108
 70
     8
  0
VERTEX
  5
10D
330
89
100
AcDbEntity
  8
1
  6
Continuous
 62
   174
420
      165
100
AcDbVertex
100
AcDb2dVertex
 10
7.956960900992855
 20
36.24561236631128
 30
-0.0000000000000107
 70
     8
  0
VERTEX
  5
10E
330
89
100
AcDbEntity
  8
1
  6
Continuous
 62
   174
420
      165
100
AcDbVertex
100
AcDb2dVertex
 10
7.653710161651581
 20
35.90921256236483
 30
-0.0000000000000106
 70
     8
  0
VERTEX
  5
10F
330
89
100
AcDbEntity
  8
1
  6
Continuous
 62
   174
420
      165
100
AcDbVertex
100
AcDb2dVertex
 10
7.354201714308156
 20
35.56949901396829
 30
-0.0000000000000105
 70
     8
  0
VERTEX
  5
110
330
89
100
AcDbEntity
  8
1
  6
Continuous
 62
   174
420
      165
100
AcDbVertex
100
AcDb2dVertex
 10
7.058557285017219
 20
35.22645451367153
 30
-0.0000000000000104
 70
     8
  0
VERTEX
  5
111
330
89
100
AcDbEntity
  8
1
  6
Continuous
 62
   174
420
      165
100
AcDbVertex
100
AcDb2dVertex
 10
6.766898599833411
 20
34.88006185402438
 30
-0.0000000000000103
 70
     8
  0
VERTEX
  5
112
330
89
100
AcDbEntity
  8
1
  6
Continuous
 62
   174
420
      165
100
AcDbVertex
100
AcDb2dVertex
 10
6.479347384811367
 20
34.5303038275767
 30
-0.0000000000000102
 70
     8
  0
VERTEX
  5
113
330
89
100
AcDbEntity
  8
1
  6
Continuous
 62
   174
420
      165
100
AcDbVertex
100
AcDb2dVertex
 10
6.196026332038403
 20
34.1771625761811
 30
-0.0000000000000101
 70
     8
  0
VERTEX
  5
114
330
89
100
AcDbEntity
  8
1
  6
Continuous
 62
   174
420
      165
100
AcDbVertex
100
AcDb2dVertex
 10
5.917061997732509
 20
33.82061763890123
 30
-0.00000000000001
 70
     8
  0
VERTEX
  5
115
330
89
100
AcDbEntity
  8
1
  6
Continuous
 62
   174
420
      165
100
AcDbVertex
100
AcDb2dVertex
 10
5.642581904144352
 20
33.4606479041035
 30
-0.0000000000000099
 70
     8
  0
VERTEX
  5
116
330
89
100
AcDbEntity
  8
1
  6
Continuous
 62
   174
420
      165
100
AcDbVertex
100
AcDb2dVertex
 10
5.372713573524599
 20
33.09723226015434
 30
-0.0000000000000097
 70
     8
  0
VERTEX
  5
117
330
89
100
AcDbEntity
  8
1
  6
Continuous
 62
   174
420
      165
100
AcDbVertex
100
AcDb2dVertex
 10
5.107584528123915
 20
32.73034959542014
 30
-0.0000000000000096
 70
     8
  0
VERTEX
  5
118
330
89
100
AcDbEntity
  8
1
  6
Continuous
 62
   174
420
      165
100
AcDbVertex
100
AcDb2dVertex
 10
4.847322290192967
 20
32.35997879826731
 30
-0.0000000000000095
 70
     8
  0
VERTEX
  5
119
330
89
100
AcDbEntity
  8
1
  6
Continuous
 62
   174
420
      165
100
AcDbVertex
100
AcDb2dVertex
 10
4.592054381982419
 20
31.98609875706228
 30
-0.0000000000000094
 70
     8
  0
VERTEX
  5
11A
330
89
100
AcDbEntity
  8
1
  6
Continuous
 62
   174
420
      165
100
AcDbVertex
100
AcDb2dVertex
 10
4.341908325742938
 20
31.60868836017146
 30
-0.0000000000000093
 70
     8
  0
VERTEX
  5
11B
330
89
100
AcDbEntity
  8
1
  6
Continuous
 62
   174
420
      165
100
AcDbVertex
100
AcDb2dVertex
 10
4.097018551959733
 20
31.2277375074718
 30
-0.0000000000000092
 70
     8
  0
VERTEX
  5
11C
330
89
100
AcDbEntity
  8
1
  6
Continuous
 62
   174
420
      165
100
AcDbVertex
100
AcDb2dVertex
 10
3.857547124056191
 20
30.84328014488246
 30
-0.0000000000000091
 70
     8
  0
VERTEX
  5
11D
330
89
100
AcDbEntity
  8
1
  6
Continuous
 62
   174
420
      165
100
AcDbVertex
100
AcDb2dVertex
 10
3.623663013690241
 20
30.45536122983312
 30
-0.000000000000009
 70
     8
  0
VERTEX
  5
11E
330
89
100
AcDbEntity
  8
1
  6
Continuous
 62
   174
420
      165
100
AcDbVertex
100
AcDb2dVertex
 10
3.39553519251981
 20
30.06402571975349
 30
-0.0000000000000089
 70
     8
  0
VERTEX
  5
11F
330
89
100
AcDbEntity
  8
1
  6
Continuous
 62
   174
420
      165
100
AcDbVertex
100
AcDb2dVertex
 10
3.17333263220283
 20
29.66931857207326
 30
-0.0000000000000087
 70
     8
  0
VERTEX
  5
120
330
89
100
AcDbEntity
  8
1
  6
Continuous
 62
   174
420
      165
100
AcDbVertex
100
AcDb2dVertex
 10
2.957224304397229
 20
29.27128474422213
 30
-0.0000000000000086
 70
     8
  0
VERTEX
  5
121
330
89
100
AcDbEntity
  8
1
  6
Continuous
 62
   174
420
      165
100
AcDbVertex
100
AcDb2dVertex
 10
2.747379180760939
 20
28.86996919362979
 30
-0.0000000000000085
 70
     8
  0
VERTEX
  5
122
330
89
100
AcDbEntity
  8
1
  6
Continuous
 62
   174
420
      165
100
AcDbVertex
100
AcDb2dVertex
 10
2.543966232951886
 20
28.46541687772594
 30
-0.0000000000000084
 70
     8
  0
VERTEX
  5
123
330
89
100
AcDbEntity
  8
1
  6
Continuous
 62
   174
420
      165
100
AcDbVertex
100
AcDb2dVertex
 10
2.347154193827657
 20
28.05767484646295
 30
-0.0000000000000083
 70
     8
  0
VERTEX
  5
124
330
89
100
AcDbEntity
  8
1
  6
Continuous
 62
   174
420
      165
100
AcDbVertex
100
AcDb2dVertex
 10
2.15711084104447
 20
27.64679851988391
 30
-0.0000000000000081
 70
     8
  0
VERTEX
  5
125
330
89
100
AcDbEntity
  8
1
  6
Continuous
 62
   174
420
      165
100
AcDbVertex
100
AcDb2dVertex
 10
1.974003713458198
 20
27.23284541055461
 30
-0.000000000000008
 70
     8
  0
VERTEX
  5
126
330
89
100
AcDbEntity
  8
1
  6
Continuous
 62
   174
420
      165
100
AcDbVertex
100
AcDb2dVertex
 10
1.798000349924715
 20
26.8158730310408
 30
-0.0000000000000079
 70
     8
  0
VERTEX
  5
127
330
89
100
AcDbEntity
  8
1
  6
Continuous
 62
   174
420
      165
100
AcDbVertex
100
AcDb2dVertex
 10
1.629268289299895
 20
26.39593889390826
 30
-0.0000000000000078
 70
     8
  0
VERTEX
  5
128
330
89
100
AcDbEntity
  8
1
  6
Continuous
 62
   174
420
      165
100
AcDbVertex
100
AcDb2dVertex
 10
1.46797507043961
 20
25.97310051172277
 30
-0.0000000000000076
 70
     8
  0
VERTEX
  5
129
330
89
100
AcDbEntity
  8
1
  6
Continuous
 62
   174
420
      165
100
AcDbVertex
100
AcDb2dVertex
 10
1.314288232199734
 20
25.54741539705009
 30
-0.0000000000000075
 70
     8
  0
VERTEX
  5
12A
330
89
100
AcDbEntity
  8
1
  6
Continuous
 62
   174
420
      165
100
AcDbVertex
100
AcDb2dVertex
 10
1.168375313436141
 20
25.118941062456
 30
-0.0000000000000074
 70
     8
  0
VERTEX
  5
12B
330
89
100
AcDbEntity
  8
1
  6
Continuous
 62
   174
420
      165
100
AcDbVertex
100
AcDb2dVertex
 10
1.030398745862556
 20
24.68775131618531
 30
-0.0000000000000073
 70
     8
  0
VERTEX
  5
12C
330
89
100
AcDbEntity
  8
1
  6
Continuous
 62
   174
420
      165
100
AcDbVertex
100
AcDb2dVertex
 10
0.9005005326241085
 20
24.25398514919908
 30
-0.0000000000000071
 70
     8
  0
VERTEX
  5
12D
330
89
100
AcDbEntity
  8
1
  6
Continuous
 62
   174
420
      165
100
AcDbVertex
100
AcDb2dVertex
 10
0.7788175697237792
 20
23.8177978481374
 30
-0.000000000000007
 70
     8
  0
VERTEX
  5
12E
330
89
100
AcDbEntity
  8
1
  6
Continuous
 62
   174
420
      165
100
AcDbVertex
100
AcDb2dVertex
 10
0.665486753164549
 20
23.37934469964037
 30
-0.0000000000000069
 70
     8
  0
VERTEX
  5
12F
330
89
100
AcDbEntity
  8
1
  6
Continuous
 62
   174
420
      165
100
AcDbVertex
100
AcDb2dVertex
 10
0.5606449789493987
 20
22.93878099034807
 30
-0.0000000000000068
 70
     8
  0
VERTEX
  5
130
330
89
100
AcDbEntity
  8
1
  6
Continuous
 62
   174
420
      165
100
AcDbVertex
100
AcDb2dVertex
 10
0.4644291430813091
 20
22.49626200690061
 30
-0.0000000000000066
 70
     8
  0
VERTEX
  5
131
330
89
100
AcDbEntity
  8
1
  6
Continuous
 62
   174
420
      165
100
AcDbVertex
100
AcDb2dVertex
 10
0.3769761415632611
 20
22.05194303593808
 30
-0.0000000000000065
 70
     8
  0
VERTEX
  5
132
330
89
100
AcDbEntity
  8
1
  6
Continuous
 62
   174
420
      165
100
AcDbVertex
100
AcDb2dVertex
 10
0.2984228703982357
 20
21.60597936410057
 30
-0.0000000000000064
 70
     8
  0
VERTEX
  5
133
330
89
100
AcDbEntity
  8
1
  6
Continuous
 62
   174
420
      165
100
AcDbVertex
100
AcDb2dVertex
 10
0.2625247918997861
 20
21.38242984122703
 30
-0.0000000000000063
 70
     8
  0
VERTEX
  5
134
330
89
100
AcDbEntity
  8
1
  6
Continuous
 62
   174
420
      165
100
AcDbVertex
100
AcDb2dVertex
 10
0.228893251195259
 20
21.158530668415
 30
-0.0000000000000062
 70
     8
  0
VERTEX
  5
135
330
89
100
AcDbEntity
  8
1
  6
Continuous
 62
   174
420
      165
100
AcDbVertex
100
AcDb2dVertex
 10
0.1975356294895747
 20
20.9343045492847
 30
-0.0000000000000062
 70
     8
  0
VERTEX
  5
136
330
89
100
AcDbEntity
  8
1
  6
Continuous
 62
   174
420
      165
100
AcDbVertex
100
AcDb2dVertex
 10
0.1684593079876535
 20
20.70977418745636
 30
-0.0000000000000061
 70
     8
  0
VERTEX
  5
137
330
89
100
AcDbEntity
  8
1
  6
Continuous
 62
   174
420
      165
100
AcDbVertex
100
AcDb2dVertex
 10
0.1416716678944157
 20
20.48496228655019
 30
-0.000000000000006
 70
     8
  0
VERTEX
  5
138
330
89
100
AcDbEntity
  8
1
  6
Continuous
 62
   174
420
      165
100
AcDbVertex
100
AcDb2dVertex
 10
0.1171800904147815
 20
20.25989155018642
 30
-0.000000000000006
 70
     8
  0
VERTEX
  5
139
330
89
100
AcDbEntity
  8
1
  6
Continuous
 62
   174
420
      165
100
AcDbVertex
100
AcDb2dVertex
 10
0.0949919567536714
 20
20.03458468198527
 30
-0.0000000000000059
 70
     8
  0
VERTEX
  5
13A
330
89
100
AcDbEntity
  8
1
  6
Continuous
 62
   174
420
      165
100
AcDbVertex
100
AcDb2dVertex
 10
0.0751146481160058
 20
19.80906438556696
 30
-0.0000000000000058
 70
     8
  0
VERTEX
  5
13B
330
89
100
AcDbEntity
  8
1
  6
Continuous
 62
   174
420
      165
100
AcDbVertex
100
AcDb2dVertex
 10
0.0575552105027114
 20
19.58335347581587
 30
-0.0000000000000058
 70
     8
  0
VERTEX
  5
13C
330
89
100
AcDbEntity
  8
1
  6
Continuous
 62
   174
420
      165
100
AcDbVertex
100
AcDb2dVertex
 10
0.0423193490986863
 20
19.35747521267207
 30
-0.0000000000000057
 70
     8
  0
VERTEX
  5
13D
330
89
100
AcDbEntity
  8
1
  6
Continuous
 62
   174
420
      165
100
AcDbVertex
100
AcDb2dVertex
 10
0.0294124338848373
 20
19.13145296733981
 30
-0.0000000000000056
 70
     8
  0
VERTEX
  5
13E
330
89
100
AcDbEntity
  8
1
  6
Continuous
 62
   174
420
      165
100
AcDbVertex
100
AcDb2dVertex
 10
0.0188398348420714
 20
18.90531011102334
 30
-0.0000000000000056
 70
     8
  0
VERTEX
  5
13F
330
89
100
AcDbEntity
  8
1
  6
Continuous
 62
   174
420
      165
100
AcDbVertex
100
AcDb2dVertex
 10
0.0106069219512957
 20
18.67907001492689
 30
-0.0000000000000055
 70
     8
  0
VERTEX
  5
140
330
89
100
AcDbEntity
  8
1
  6
Continuous
 62
   174
420
      165
100
AcDbVertex
100
AcDb2dVertex
 10
0.004719065193417
 20
18.45275605025468
 30
-0.0000000000000054
 70
     8
  0
VERTEX
  5
141
330
89
100
AcDbEntity
  8
1
  6
Continuous
 62
   174
420
      165
100
AcDbVertex
100
AcDb2dVertex
 10
0.0011816345493423
 20
18.22639158821098
 30
-0.0000000000000054
 70
     8
  0
VERTEX
  5
142
330
89
100
AcDbEntity
  8
1
  6
Continuous
 62
   174
420
      165
100
AcDbVertex
100
AcDb2dVertex
 10
-0.0000000000000213
 20
17.99999999999999
 30
-0.0000000000000053
 70
     8
  0
SEQEND
  5
8A
330
89
100
AcDbEntity
  8
1
  6
Continuous
 62
   174
420
      165
  0
POLYLINE
  5
145
102
{ACAD_XDICTIONARY
360
143
102
}
330
1F
100
AcDbEntity
  8
1
  6
Continuous
 62
   174
420
      165
100
AcDb2dPolyline
 66
     1
 10
0.0
 20
0.0
 30
32.00000000003963
 70
   132
 75
     6
  0
VERTEX
  5
147
330
145
100
AcDbEntity
  8
1
  6
Continuous
 62
   174
420
      165
100
AcDbVertex
100
AcDb2dVertex
 10
-0.0000000000000213
 20
0.0
 30
0.0
 70
    16
  0
VERTEX
  5
148
330
145
100
AcDbEntity
  8
1
  6
Continuous
 62
   174
420
      165
100
AcDbVertex
100
AcDb2dVertex
 10
120.000000010725
 20
0.0
 30
0.0
 70
    16
  0
VERTEX
  5
149
330
145
100
AcDbEntity
  8
1
  6
Continuous
 62
   174
420
      165
100
AcDbVertex
100
AcDb2dVertex
 10
-0.0000000000000213
 20
0.0
 30
0.0
 70
     8
  0
VERTEX
  5
14A
330
145
100
AcDbEntity
  8
1
  6
Continuous
 62
   174
420
      165
100
AcDbVertex
100
AcDb2dVertex
 10
15.00000000134061
 20
0.0
 30
0.0
 70
     8
  0
VERTEX
  5
14B
330
145
100
AcDbEntity
  8
1
  6
Continuous
 62
   174
420
      165
100
AcDbVertex
100
AcDb2dVertex
 10
30.00000000268123
 20
0.0
 30
0.0
 70
     8
  0
VERTEX
  5
14C
330
145
100
AcDbEntity
  8
1
  6
Continuous
 62
   174
420
      165
100
AcDbVertex
100
AcDb2dVertex
 10
45.00000000402186
 20
0.0
 30
0.0
 70
     8
  0
VERTEX
  5
14D
330
145
100
AcDbEntity
  8
1
  6
Continuous
 62
   174
420
      165
100
AcDbVertex
100
AcDb2dVertex
 10
60.00000000536249
 20
0.0
 30
0.0
 70
     8
  0
VERTEX
  5
14E
330
145
100
AcDbEntity
  8
1
  6
Continuous
 62
   174
420
      165
100
AcDbVertex
100
AcDb2dVertex
 10
75.00000000670312
 20
0.0
 30
0.0
 70
     8
  0
VERTEX
  5
14F
330
145
100
AcDbEntity
  8
1
  6
Continuous
 62
   174
420
      165
100
AcDbVertex
100
AcDb2dVertex
 10
90.00000000804374
 20
0.0
 30
0.0
 70
     8
  0
VERTEX
  5
150
330
145
100
AcDbEntity
  8
1
  6
Continuous
 62
   174
420
      165
100
AcDbVertex
100
AcDb2dVertex
 10
105.0000000093844
 20
0.0
 30
0.0
 70
     8
  0
VERTEX
  5
151
330
145
100
AcDbEntity
  8
1
  6
Continuous
 62
   174
420
      165
100
AcDbVertex
100
AcDb2dVertex
 10
120.000000010725
 20
0.0
 30
0.0
 70
     8
  0
SEQEND
  5
146
330
145
100
AcDbEntity
  8
1
  6
Continuous
 62
   174
420
      165
  0
POLYLINE
  5
154
102
{ACAD_XDICTIONARY
360
152
102
}
330
1F
100
AcDbEntity
  8
1
  6
Continuous
 62
   215
420
 10834597
100
AcDb2dPolyline
 66
     1
 10
0.0
 20
0.0
 30
32.00000000003963
 70
   132
 75
     6
  0
VERTEX
  5
156
330
154
100
AcDbEntity
  8
1
  6
Continuous
 62
   215
420
 10834597
100
AcDbVertex
100
AcDb2dVertex
 10
26.99999999999998
 20
47.99999999999999
 30
0.0000000000000029
 70
    16
  0
VERTEX
  5
157
330
154
100
AcDbEntity
  8
1
  6
Continuous
 62
   215
420
 10834597
100
AcDbVertex
100
AcDb2dVertex
 10
26.99999999999998
 20
60.0214176994921
 30
0.0000000000000037
 70
    16
  0
VERTEX
  5
158
330
154
100
AcDbEntity
  8
1
  6
Continuous
 62
   215
420
 10834597
100
AcDbVertex
100
AcDb2dVertex
 10
26.99999999999998
 20
47.99999999999999
 30
0.0000000000000029
 70
     8
  0
VERTEX
  5
159
330
154
100
AcDbEntity
  8
1
  6
Continuous
 62
   215
420
 10834597
100
AcDbVertex
100
AcDb2dVertex
 10
26.99999999999998
 20
49.50267721243651
 30
0.000000000000003
 70
     8
  0
VERTEX
  5
15A
330
154
100
AcDbEntity
  8
1
  6
Continuous
 62
   215
420
 10834597
100
AcDbVertex
100
AcDb2dVertex
 10
26.99999999999998
 20
51.00535442487302
 30
0.0000000000000031
 70
     8
  0
VERTEX
  5
15B
330
154
100
AcDbEntity
  8
1
  6
Continuous
 62
   215
420
 10834597
100
AcDbVertex
100
AcDb2dVertex
 10
26.99999999999998
 20
52.50803163730954
 30
0.0000000000000032
 70
     8
  0
VERTEX
  5
15C
330
154
100
AcDbEntity
  8
1
  6
Continuous
 62
   215
420
 10834597
100
AcDbVertex
100
AcDb2dVertex
 10
26.99999999999998
 20
54.01070884974605
 30
0.0000000000000033
 70
     8
  0
VERTEX
  5
15D
330
154
100
AcDbEntity
  8
1
  6
Continuous
 62
   215
420
 10834597
100
AcDbVertex
100
AcDb2dVertex
 10
26.99999999999998
 20
55.51338606218256
 30
0.0000000000000034
 70
     8
  0
VERTEX
  5
15E
330
154
100
AcDbEntity
  8
1
  6
Continuous
 62
   215
420
 10834597
100
AcDbVertex
100
AcDb2dVertex
 10
26.99999999999998
 20
57.01606327461908
 30
0.0000000000000035
 70
     8
  0
VERTEX
  5
15F
330
154
100
AcDbEntity
  8
1
  6
Continuous
 62
   215
420
 10834597
100
AcDbVertex
100
AcDb2dVertex
 10
26.99999999999998
 20
58.5187404870556
 30
0.0000000000000036
 70
     8
  0
VERTEX
  5
160
330
154
100
AcDbEntity
  8
1
  6
Continuous
 62
   215
420
 10834597
100
AcDbVertex
100
AcDb2dVertex
 10
26.99999999999998
 20
60.0214176994921
 30
0.0000000000000037
 70
     8
  0
SEQEND
  5
155
330
154
100
AcDbEntity
  8
1
  6
Continuous
 62
   215
420
 10834597
  0
POLYLINE
  5
163
102
{ACAD_XDICTIONARY
360
161
102
}
330
1F
100
AcDbEntity
  8
1
  6
Continuous
 62
   174
420
      165
100
AcDb2dPolyline
 66
     1
 10
0.0
 20
0.0
 30
-32.00000000003963
 70
   132
210
0.0
220
0.0
230
-1.0
 75
     6
  0
VERTEX
  5
165
330
163
100
AcDbEntity
  8
1
  6
Continuous
 62
   174
420
      165
100
AcDbVertex
100
AcDb2dVertex
 10
-112.999999721952
 20
63.99999999999996
 30
-0.0000000000000178
 70
    16
  0
VERTEX
  5
166
330
163
100
AcDbEntity
  8
1
  6
Continuous
 62
   174
420
      165
100
AcDbVertex
100
AcDb2dVertex
 10
-96.99999999999996
 20
63.99999999999996
 30
-0.0000000000000158
 70
    16
  0
VERTEX
  5
167
330
163
100
AcDbEntity
  8
1
  6
Continuous
 62
   174
420
      165
100
AcDbVertex
100
AcDb2dVertex
 10
-112.999999721952
 20
63.99999999999996
 30
-0.0000000000000178
 70
     8
  0
VERTEX
  5
168
330
163
100
AcDbEntity
  8
1
  6
Continuous
 62
   174
420
      165
100
AcDbVertex
100
AcDb2dVertex
 10
-110.999999756708
 20
63.99999999999996
 30
-0.0000000000000175
 70
     8
  0
VERTEX
  5
169
330
163
100
AcDbEntity
  8
1
  6
Continuous
 62
   174
420
      165
100
AcDbVertex
100
AcDb2dVertex
 10
-108.9999997914639
 20
63.99999999999996
 30
-0.0000000000000173
 70
     8
  0
VERTEX
  5
16A
330
163
100
AcDbEntity
  8
1
  6
Continuous
 62
   174
420
      165
100
AcDbVertex
100
AcDb2dVertex
 10
-106.9999998262199
 20
63.99999999999996
 30
-0.000000000000017
 70
     8
  0
VERTEX
  5
16B
330
163
100
AcDbEntity
  8
1
  6
Continuous
 62
   174
420
      165
100
AcDbVertex
100
AcDb2dVertex
 10
-104.9999998609759
 20
63.99999999999996
 30
-0.0000000000000168
 70
     8
  0
VERTEX
  5
16C
330
163
100
AcDbEntity
  8
1
  6
Continuous
 62
   174
420
      165
100
AcDbVertex
100
AcDb2dVertex
 10
-102.999999895732
 20
63.99999999999996
 30
-0.0000000000000165
 70
     8
  0
VERTEX
  5
16D
330
163
100
AcDbEntity
  8
1
  6
Continuous
 62
   174
420
      165
100
AcDbVertex
100
AcDb2dVertex
 10
-100.999999930488
 20
63.99999999999996
 30
-0.0000000000000163
 70
     8
  0
VERTEX
  5
16E
330
163
100
AcDbEntity
  8
1
  6
Continuous
 62
   174
420
      165
100
AcDbVertex
100
AcDb2dVertex
 10
-98.99999996524396
 20
63.99999999999996
 30
-0.000000000000016
 70
     8
  0
VERTEX
  5
16F
330
163
100
AcDbEntity
  8
1
  6
Continuous
 62
   174
420
      165
100
AcDbVertex
100
AcDb2dVertex
 10
-96.99999999999996
 20
63.99999999999996
 30
-0.0000000000000158
 70
     8
  0
SEQEND
  5
164
330
163
100
AcDbEntity
  8
1
  6
Continuous
 62
   174
420
      165
  0
POLYLINE
  5
172
102
{ACAD_XDICTIONARY
360
170
102
}
330
1F
100
AcDbEntity
  8
1
  6
Continuous
 62
   215
420
 10834597
100
AcDb2dPolyline
 66
     1
 10
0.0
 20
0.0
 30
-32.00000000003963
 70
   132
210
0.0
220
0.0
230
-1.0
 75
     6
  0
VERTEX
  5
174
330
172
100
AcDbEntity
  8
1
  6
Continuous
 62
   215
420
 10834597
100
AcDbVertex
100
AcDb2dVertex
 10
-26.99999999999996
 20
60.0214176994921
 30
-0.000000000000007
 70
    16
  0
VERTEX
  5
175
330
172
100
AcDbEntity
  8
1
  6
Continuous
 62
   215
420
 10834597
100
AcDbVertex
100
AcDb2dVertex
 10
-29.90227627453392
 20
60.36954922617972
 30
-0.0000000000000074
 70
    16
  0
VERTEX
  5
176
330
172
100
AcDbEntity
  8
1
  6
Continuous
 62
   215
420
 10834597
100
AcDbVertex
100
AcDb2dVertex
 10
-35.71304333768371
 20
61.01343951507208
 30
-0.0000000000000081
 70
    16
  0
VERTEX
  5
177
330
172
100
AcDbEntity
  8
1
  6
Continuous
 62
   215
420
 10834597
100
AcDbVertex
100
AcDb2dVertex
 10
-44.44430877236012
 20
61.83193916712298
 30
-0.0000000000000092
 70
    16
  0
VERTEX
  5
178
330
172
100
AcDbEntity
  8
1
  6
Continuous
 62
   215
420
 10834597
100
AcDbVertex
100
AcDb2dVertex
 10
-53.1872928995169
 20
62.51262469851494
 30
-0.0000000000000103
 70
    16
  0
VERTEX
  5
179
330
172
100
AcDbEntity
  8
1
  6
Continuous
 62
   215
420
 10834597
100
AcDbVertex
100
AcDb2dVertex
 10
-64.85706334791949
 20
63.24368313635711
 30
-0.0000000000000118
 70
    16
  0
VERTEX
  5
17A
330
172
100
AcDbEntity
  8
1
  6
Continuous
 62
   215
420
 10834597
100
AcDbVertex
100
AcDb2dVertex
 10
-79.46148764664696
 20
63.84329506099263
 30
-0.0000000000000136
 70
    16
  0
VERTEX
  5
17B
330
172
100
AcDbEntity
  8
1
  6
Continuous
 62
   215
420
 10834597
100
AcDbVertex
100
AcDb2dVertex
 10
-91.15388836345086
 20
63.99999898221347
 30
-0.0000000000000151
 70
    16
  0
VERTEX
  5
17C
330
172
100
AcDbEntity
  8
1
  6
Continuous
 62
   215
420
 10834597
100
AcDbVertex
100
AcDb2dVertex
 10
-96.99999999999997
 20
64.00000000000001
 30
-0.0000000000000158
 70
    16
  0
VERTEX
  5
17D
330
172
100
AcDbEntity
  8
1
  6
Continuous
 62
   215
420
 10834597
100
AcDbVertex
100
AcDb2dVertex
 10
-26.99999999999996
 20
60.0214176994921
 30
-0.000000000000007
 70
     8
  0
VERTEX
  5
17E
330
172
100
AcDbEntity
  8
1
  6
Continuous
 62
   215
420
 10834597
100
AcDbVertex
100
AcDb2dVertex
 10
-28.08849810695788
 20
60.1507427197439
 30
-0.0000000000000071
 70
     8
  0
VERTEX
  5
17F
330
172
100
AcDbEntity
  8
1
  6
Continuous
 62
   215
420
 10834597
100
AcDbVertex
100
AcDb2dVertex
 10
-29.17728062726672
 20
60.27763187312963
 30
-0.0000000000000073
 70
     8
  0
VERTEX
  5
180
330
172
100
AcDbEntity
  8
1
  6
Continuous
 62
   215
420
 10834597
100
AcDbVertex
100
AcDb2dVertex
 10
-30.2663406689298
 20
60.40210426611836
 30
-0.0000000000000074
 70
     8
  0
VERTEX
  5
181
330
172
100
AcDbEntity
  8
1
  6
Continuous
 62
   215
420
 10834597
100
AcDbVertex
100
AcDb2dVertex
 10
-31.35567133995048
 20
60.52417900517914
 30
-0.0000000000000075
 70
     8
  0
VERTEX
  5
182
330
172
100
AcDbEntity
  8
1
  6
Continuous
 62
   215
420
 10834597
100
AcDbVertex
100
AcDb2dVertex
 10
-32.44526574833206
 20
60.64387519678105
 30
-0.0000000000000077
 70
     8
  0
VERTEX
  5
183
330
172
100
AcDbEntity
  8
1
  6
Continuous
 62
   215
420
 10834597
100
AcDbVertex
100
AcDb2dVertex
 10
-33.5351170020779
 20
60.76121194739314
 30
-0.0000000000000078
 70
     8
  0
VERTEX
  5
184
330
172
100
AcDbEntity
  8
1
  6
Continuous
 62
   215
420
 10834597
100
AcDbVertex
100
AcDb2dVertex
 10
-34.62521820919132
 20
60.87620836348449
 30
-0.000000000000008
 70
     8
  0
VERTEX
  5
185
330
172
100
AcDbEntity
  8
1
  6
Continuous
 62
   215
420
 10834597
100
AcDbVertex
100
AcDb2dVertex
 10
-35.71556247767566
 20
60.98888355152415
 30
-0.0000000000000081
 70
     8
  0
VERTEX
  5
186
330
172
100
AcDbEntity
  8
1
  6
Continuous
 62
   215
420
 10834597
100
AcDbVertex
100
AcDb2dVertex
 10
-36.80614295868361
 20
61.09925653306858
 30
-0.0000000000000082
 70
     8
  0
VERTEX
  5
187
330
172
100
AcDbEntity
  8
1
  6
Continuous
 62
   215
420
 10834597
100
AcDbVertex
100
AcDb2dVertex
 10
-37.89695297596526
 20
61.2073459900238
 30
-0.0000000000000084
 70
     8
  0
VERTEX
  5
188
330
172
100
AcDbEntity
  8
1
  6
Continuous
 62
   215
420
 10834597
100
AcDbVertex
100
AcDb2dVertex
 10
-38.98798589642009
 20
61.31317051938324
 30
-0.0000000000000085
 70
     8
  0
VERTEX
  5
189
330
172
100
AcDbEntity
  8
1
  6
Continuous
 62
   215
420
 10834597
100
AcDbVertex
100
AcDb2dVertex
 10
-40.07923508694758
 20
61.4167487181403
 30
-0.0000000000000087
 70
     8
  0
VERTEX
  5
18A
330
172
100
AcDbEntity
  8
1
  6
Continuous
 62
   215
420
 10834597
100
AcDbVertex
100
AcDb2dVertex
 10
-41.17069391444721
 20
61.51809918328841
 30
-0.0000000000000088
 70
     8
  0
VERTEX
  5
18B
330
172
100
AcDbEntity
  8
1
  6
Continuous
 62
   215
420
 10834597
100
AcDbVertex
100
AcDb2dVertex
 10
-42.26235574581842
 20
61.61724051182098
 30
-0.0000000000000089
 70
     8
  0
VERTEX
  5
18C
330
172
100
AcDbEntity
  8
1
  6
Continuous
 62
   215
420
 10834597
100
AcDbVertex
100
AcDb2dVertex
 10
-43.35421394796069
 20
61.71419130073142
 30
-0.0000000000000091
 70
     8
  0
VERTEX
  5
18D
330
172
100
AcDbEntity
  8
1
  6
Continuous
 62
   215
420
 10834597
100
AcDbVertex
100
AcDb2dVertex
 10
-44.44626188777352
 20
61.80897014701316
 30
-0.0000000000000092
 70
     8
  0
VERTEX
  5
18E
330
172
100
AcDbEntity
  8
1
  6
Continuous
 62
   215
420
 10834597
100
AcDbVertex
100
AcDb2dVertex
 10
-45.53849326456653
 20
61.90159431327061
 30
-0.0000000000000094
 70
     8
  0
VERTEX
  5
18F
330
172
100
AcDbEntity
  8
1
  6
Continuous
 62
   215
420
 10834597
100
AcDbVertex
100
AcDb2dVertex
 10
-46.63090310729023
 20
61.99207572455222
 30
-0.0000000000000095
 70
     8
  0
VERTEX
  5
190
330
172
100
AcDbEntity
  8
1
  6
Continuous
 62
   215
420
 10834597
100
AcDbVertex
100
AcDb2dVertex
 10
-47.7234867773053
 20
62.08042497151748
 30
-0.0000000000000096
 70
     8
  0
VERTEX
  5
191
330
172
100
AcDbEntity
  8
1
  6
Continuous
 62
   215
420
 10834597
100
AcDbVertex
100
AcDb2dVertex
 10
-48.81623963597237
 20
62.16665264482586
 30
-0.0000000000000098
 70
     8
  0
VERTEX
  5
192
330
172
100
AcDbEntity
  8
1
  6
Continuous
 62
   215
420
 10834597
100
AcDbVertex
100
AcDb2dVertex
 10
-49.90915704465215
 20
62.25076933513682
 30
-0.0000000000000099
 70
     8
  0
VERTEX
  5
193
330
172
100
AcDbEntity
  8
1
  6
Continuous
 62
   215
420
 10834597
100
AcDbVertex
100
AcDb2dVertex
 10
-51.0022343647053
 20
62.33278563310983
 30
-0.0000000000000101
 70
     8
  0
VERTEX
  5
194
330
172
100
AcDbEntity
  8
1
  6
Continuous
 62
   215
420
 10834597
100
AcDbVertex
100
AcDb2dVertex
 10
-52.0954669574925
 20
62.41271212940437
 30
-0.0000000000000102
 70
     8
  0
VERTEX
  5
195
330
172
100
AcDbEntity
  8
1
  6
Continuous
 62
   215
420
 10834597
100
AcDbVertex
100
AcDb2dVertex
 10
-53.18885018437442
 20
62.49055941467989
 30
-0.0000000000000103
 70
     8
  0
VERTEX
  5
196
330
172
100
AcDbEntity
  8
1
  6
Continuous
 62
   215
420
 10834597
100
AcDbVertex
100
AcDb2dVertex
 10
-54.28237937929295
 20
62.56633849783686
 30
-0.0000000000000105
 70
     8
  0
VERTEX
  5
197
330
172
100
AcDbEntity
  8
1
  6
Continuous
 62
   215
420
 10834597
100
AcDbVertex
100
AcDb2dVertex
 10
-55.37604976651481
 20
62.64006206073965
 30
-0.0000000000000106
 70
     8
  0
VERTEX
  5
198
330
172
100
AcDbEntity
  8
1
  6
Continuous
 62
   215
420
 10834597
100
AcDbVertex
100
AcDb2dVertex
 10
-56.46985654288794
 20
62.71174320349363
 30
-0.0000000000000108
 70
     8
  0
VERTEX
  5
199
330
172
100
AcDbEntity
  8
1
  6
Continuous
 62
   215
420
 10834597
100
AcDbVertex
100
AcDb2dVertex
 10
-57.56379490526027
 20
62.78139502620414
 30
-0.0000000000000109
 70
     8
  0
VERTEX
  5
19A
330
172
100
AcDbEntity
  8
1
  6
Continuous
 62
   215
420
 10834597
100
AcDbVertex
100
AcDb2dVertex
 10
-58.65786005047975
 20
62.84903062897656
 30
-0.000000000000011
 70
     8
  0
VERTEX
  5
19B
330
172
100
AcDbEntity
  8
1
  6
Continuous
 62
   215
420
 10834597
100
AcDbVertex
100
AcDb2dVertex
 10
-59.75204717539432
 20
62.91466311191623
 30
-0.0000000000000112
 70
     8
  0
VERTEX
  5
19C
330
172
100
AcDbEntity
  8
1
  6
Continuous
 62
   215
420
 10834597
100
AcDbVertex
100
AcDb2dVertex
 10
-60.84635147685191
 20
62.9783055751285
 30
-0.0000000000000113
 70
     8
  0
VERTEX
  5
19D
330
172
100
AcDbEntity
  8
1
  6
Continuous
 62
   215
420
 10834597
100
AcDbVertex
100
AcDb2dVertex
 10
-61.94076815170047
 20
63.03997111871875
 30
-0.0000000000000114
 70
     8
  0
VERTEX
  5
19E
330
172
100
AcDbEntity
  8
1
  6
Continuous
 62
   215
420
 10834597
100
AcDbVertex
100
AcDb2dVertex
 10
-64.1299211757742
 20
63.15741232445232
 30
-0.0000000000000117
 70
     8
  0
VERTEX
  5
19F
330
172
100
AcDbEntity
  8
1
  6
Continuous
 62
   215
420
 10834597
100
AcDbVertex
100
AcDb2dVertex
 10
-66.31947665645896
 20
63.26703391494839
 30
-0.000000000000012
 70
     8
  0
VERTEX
  5
1A0
330
172
100
AcDbEntity
  8
1
  6
Continuous
 62
   215
420
 10834597
100
AcDbVertex
100
AcDb2dVertex
 10
-68.50940676941015
 20
63.3688715530361
 30
-0.0000000000000123
 70
     8
  0
VERTEX
  5
1A1
330
172
100
AcDbEntity
  8
1
  6
Continuous
 62
   215
420
 10834597
100
AcDbVertex
100
AcDb2dVertex
 10
-70.69968369028322
 20
63.46296090154467
 30
-0.0000000000000125
 70
     8
  0
VERTEX
  5
1A2
330
172
100
AcDbEntity
  8
1
  6
Continuous
 62
   215
420
 10834597
100
AcDbVertex
100
AcDb2dVertex
 10
-72.89027959473357
 20
63.54933762330324
 30
-0.0000000000000128
 70
     8
  0
VERTEX
  5
1A3
330
172
100
AcDbEntity
  8
1
  6
Continuous
 62
   215
420
 10834597
100
AcDbVertex
100
AcDb2dVertex
 10
-75.0811666584166
 20
63.62803738114099
 30
-0.0000000000000131
 70
     8
  0
VERTEX
  5
1A4
330
172
100
AcDbEntity
  8
1
  6
Continuous
 62
   215
420
 10834597
100
AcDbVertex
100
AcDb2dVertex
 10
-77.27231705698775
 20
63.69909583788711
 30
-0.0000000000000134
 70
     8
  0
VERTEX
  5
1A5
330
172
100
AcDbEntity
  8
1
  6
Continuous
 62
   215
420
 10834597
100
AcDbVertex
100
AcDb2dVertex
 10
-79.46370296610243
 20
63.76254865637074
 30
-0.0000000000000136
 70
     8
  0
VERTEX
  5
1A6
330
172
100
AcDbEntity
  8
1
  6
Continuous
 62
   215
420
 10834597
100
AcDbVertex
100
AcDb2dVertex
 10
-81.65529669872618
 20
63.81843023425253
 30
-0.0000000000000139
 70
     8
  0
VERTEX
  5
1A7
330
172
100
AcDbEntity
  8
1
  6
Continuous
 62
   215
420
 10834597
100
AcDbVertex
100
AcDb2dVertex
 10
-83.84707111706477
 20
63.86676990851897
 30
-0.0000000000000142
 70
     8
  0
VERTEX
  5
1A8
330
172
100
AcDbEntity
  8
1
  6
Continuous
 62
   215
420
 10834597
100
AcDbVertex
100
AcDb2dVertex
 10
-86.03899922063414
 20
63.90759575098798
 30
-0.0000000000000144
 70
     8
  0
VERTEX
  5
1A9
330
172
100
AcDbEntity
  8
1
  6
Continuous
 62
   215
420
 10834597
100
AcDbVertex
100
AcDb2dVertex
 10
-88.23105400895021
 20
63.94093583347755
 30
-0.0000000000000147
 70
     8
  0
VERTEX
  5
1AA
330
172
100
AcDbEntity
  8
1
  6
Continuous
 62
   215
420
 10834597
100
AcDbVertex
100
AcDb2dVertex
 10
-90.42320848152892
 20
63.96681822780558
 30
-0.000000000000015
 70
     8
  0
VERTEX
  5
1AB
330
172
100
AcDbEntity
  8
1
  6
Continuous
 62
   215
420
 10834597
100
AcDbVertex
100
AcDb2dVertex
 10
-92.61543563788615
 20
63.98527100579004
 30
-0.0000000000000153
 70
     8
  0
VERTEX
  5
1AC
330
172
100
AcDbEntity
  8
1
  6
Continuous
 62
   215
420
 10834597
100
AcDbVertex
100
AcDb2dVertex
 10
-94.80770847753787
 20
63.99632223924887
 30
-0.0000000000000155
 70
     8
  0
VERTEX
  5
1AD
330
172
100
AcDbEntity
  8
1
  6
Continuous
 62
   215
420
 10834597
100
AcDbVertex
100
AcDb2dVertex
 10
-96.99999999999994
 20
64.00000000000001
 30
-0.0000000000000158
 70
     8
  0
SEQEND
  5
173
330
172
100
AcDbEntity
  8
1
  6
Continuous
 62
   215
420
 10834597
  0
POLYLINE
  5
1B0
102
{ACAD_XDICTIONARY
360
1AE
102
}
330
1F
100
AcDbEntity
  8
1
  6
Continuous
 62
   174
420
      165
100
AcDb2dPolyline
 66
     1
 10
0.0
 20
0.0
 30
32.00000000003963
 70
   132
 75
     6
  0
VERTEX
  5
1B2
330
1B0
100
AcDbEntity
  8
1
  6
Continuous
 62
   174
420
      165
100
AcDbVertex
100
AcDb2dVertex
 10
136.0
 20
44.00000106086436
 30
0.0000000000000027
 70
    16
  0
VERTEX
  5
1B3
330
1B0
100
AcDbEntity
  8
1
  6
Continuous
 62
   174
420
      165
100
AcDbVertex
100
AcDb2dVertex
 10
135.9999924334723
 20
44.7044883161449
 30
0.0000000000000027
 70
    16
  0
VERTEX
  5
1B4
330
1B0
100
AcDbEntity
  8
1
  6
Continuous
 62
   174
420
      165
100
AcDbVertex
100
AcDb2dVertex
 10
135.91378048309
 20
46.11325287093298
 30
0.0000000000000028
 70
    16
  0
VERTEX
  5
1B5
330
1B0
100
AcDbEntity
  8
1
  6
Continuous
 62
   174
420
      165
100
AcDbVertex
100
AcDb2dVertex
 10
135.4049635768121
 20
48.89016688349074
 30
0.000000000000003
 70
    16
  0
VERTEX
  5
1B6
330
1B0
100
AcDbEntity
  8
1
  6
Continuous
 62
   174
420
      165
100
AcDbVertex
100
AcDb2dVertex
 10
134.1531147830775
 20
52.20818391668
 30
0.0000000000000032
 70
    16
  0
VERTEX
  5
1B7
330
1B0
100
AcDbEntity
  8
1
  6
Continuous
 62
   174
420
      165
100
AcDbVertex
100
AcDb2dVertex
 10
131.8026423183178
 20
55.7509858979726
 30
0.0000000000000034
 70
    16
  0
VERTEX
  5
1B8
330
1B0
100
AcDbEntity
  8
1
  6
Continuous
 62
   174
420
      165
100
AcDbVertex
100
AcDb2dVertex
 10
128.7737228582735
 20
58.72977116607856
 30
0.0000000000000036
 70
    16
  0
VERTEX
  5
1B9
330
1B0
100
AcDbEntity
  8
1
  6
Continuous
 62
   174
420
      165
100
AcDbVertex
100
AcDb2dVertex
 10
125.2389298894112
 20
61.07605264811657
 30
0.0000000000000037
 70
    16
  0
VERTEX
  5
1BA
330
1B0
100
AcDbEntity
  8
1
  6
Continuous
 62
   174
420
      165
100
AcDbVertex
100
AcDb2dVertex
 10
121.3441395155508
 20
62.76270528556365
 30
0.0000000000000038
 70
    16
  0
VERTEX
  5
1BB
330
1B0
100
AcDbEntity
  8
1
  6
Continuous
 62
   174
420
      165
100
AcDbVertex
100
AcDb2dVertex
 10
117.2270963001888
 20
63.77490858764368
 30
0.0000000000000039
 70
    16
  0
VERTEX
  5
1BC
330
1B0
100
AcDbEntity
  8
1
  6
Continuous
 62
   174
420
      165
100
AcDbVertex
100
AcDb2dVertex
 10
114.4087530275866
 20
63.99999063819391
 30
0.0000000000000039
 70
    16
  0
VERTEX
  5
1BD
330
1B0
100
AcDbEntity
  8
1
  6
Continuous
 62
   174
420
      165
100
AcDbVertex
100
AcDb2dVertex
 10
112.999999721952
 20
63.99999999999996
 30
0.0000000000000039
 70
    16
  0
VERTEX
  5
1BE
330
1B0
100
AcDbEntity
  8
1
  6
Continuous
 62
   174
420
      165
100
AcDbVertex
100
AcDb2dVertex
 10
136.0
 20
44.00000106086436
 30
0.0000000000000027
 70
     8
  0
VERTEX
  5
1BF
330
1B0
100
AcDbEntity
  8
1
  6
Continuous
 62
   174
420
      165
100
AcDbVertex
100
AcDb2dVertex
 10
135.9979789740268
 20
44.26416914999589
 30
0.0000000000000027
 70
     8
  0
VERTEX
  5
1C0
330
1B0
100
AcDbEntity
  8
1
  6
Continuous
 62
   174
420
      165
100
AcDbVertex
100
AcDb2dVertex
 10
135.9919297685263
 20
44.52826913288916
 30
0.0000000000000027
 70
     8
  0
VERTEX
  5
1C1
330
1B0
100
AcDbEntity
  8
1
  6
Continuous
 62
   174
420
      165
100
AcDbVertex
100
AcDb2dVertex
 10
135.9818646797833
 20
44.79224274498272
 30
0.0000000000000027
 70
     8
  0
VERTEX
  5
1C2
330
1B0
100
AcDbEntity
  8
1
  6
Continuous
 62
   174
420
      165
100
AcDbVertex
100
AcDb2dVertex
 10
135.9677960040827
 20
45.05603172171519
 30
0.0000000000000028
 70
     8
  0
VERTEX
  5
1C3
330
1B0
100
AcDbEntity
  8
1
  6
Continuous
 62
   174
420
      165
100
AcDbVertex
100
AcDb2dVertex
 10
135.9497360377092
 20
45.31957779852513
 30
0.0000000000000028
 70
     8
  0
VERTEX
  5
1C4
330
1B0
100
AcDbEntity
  8
1
  6
Continuous
 62
   174
420
      165
100
AcDbVertex
100
AcDb2dVertex
 10
135.9276970769479
 20
45.58282271085115
 30
0.0000000000000028
 70
     8
  0
VERTEX
  5
1C5
330
1B0
100
AcDbEntity
  8
1
  6
Continuous
 62
   174
420
      165
100
AcDbVertex
100
AcDb2dVertex
 10
135.9016914180835
 20
45.8457081941318
 30
0.0000000000000028
 70
     8
  0
VERTEX
  5
1C6
330
1B0
100
AcDbEntity
  8
1
  6
Continuous
 62
   174
420
      165
100
AcDbVertex
100
AcDb2dVertex
 10
135.8717313574008
 20
46.10817598380569
 30
0.0000000000000028
 70
     8
  0
VERTEX
  5
1C7
330
1B0
100
AcDbEntity
  8
1
  6
Continuous
 62
   174
420
      165
100
AcDbVertex
100
AcDb2dVertex
 10
135.8378290831093
 20
46.37016750365292
 30
0.0000000000000028
 70
     8
  0
VERTEX
  5
1C8
330
1B0
100
AcDbEntity
  8
1
  6
Continuous
 62
   174
420
      165
100
AcDbVertex
100
AcDb2dVertex
 10
135.7999963511161
 20
46.63162293081979
 30
0.0000000000000029
 70
     8
  0
VERTEX
  5
1C9
330
1B0
100
AcDbEntity
  8
1
  6
Continuous
 62
   174
420
      165
100
AcDbVertex
100
AcDb2dVertex
 10
135.7582448092526
 20
46.89248213079409
 30
0.0000000000000029
 70
     8
  0
VERTEX
  5
1CA
330
1B0
100
AcDbEntity
  8
1
  6
Continuous
 62
   174
420
      165
100
AcDbVertex
100
AcDb2dVertex
 10
135.7125861053506
 20
47.15268496906366
 30
0.0000000000000029
 70
     8
  0
VERTEX
  5
1CB
330
1B0
100
AcDbEntity
  8
1
  6
Continuous
 62
   174
420
      165
100
AcDbVertex
100
AcDb2dVertex
 10
135.6630318872416
 20
47.4121713111163
 30
0.0000000000000029
 70
     8
  0
VERTEX
  5
1CC
330
1B0
100
AcDbEntity
  8
1
  6
Continuous
 62
   174
420
      165
100
AcDbVertex
100
AcDb2dVertex
 10
135.6095938027574
 20
47.67088102243982
 30
0.0000000000000029
 70
     8
  0
VERTEX
  5
1CD
330
1B0
100
AcDbEntity
  8
1
  6
Continuous
 62
   174
420
      165
100
AcDbVertex
100
AcDb2dVertex
 10
135.5522834997293
 20
47.92875396852205
 30
0.0000000000000029
 70
     8
  0
VERTEX
  5
1CE
330
1B0
100
AcDbEntity
  8
1
  6
Continuous
 62
   174
420
      165
100
AcDbVertex
100
AcDb2dVertex
 10
135.4911126259891
 20
48.18573001485078
 30
0.000000000000003
 70
     8
  0
VERTEX
  5
1CF
330
1B0
100
AcDbEntity
  8
1
  6
Continuous
 62
   174
420
      165
100
AcDbVertex
100
AcDb2dVertex
 10
135.3572648465095
 20
48.69676795785377
 30
0.000000000000003
 70
     8
  0
VERTEX
  5
1D0
330
1B0
100
AcDbEntity
  8
1
  6
Continuous
 62
   174
420
      165
100
AcDbVertex
100
AcDb2dVertex
 10
135.2082890910256
 20
49.20359921362509
 30
0.000000000000003
 70
     8
  0
VERTEX
  5
1D1
330
1B0
100
AcDbEntity
  8
1
  6
Continuous
 62
   174
420
      165
100
AcDbVertex
100
AcDb2dVertex
 10
135.0444530750552
 20
49.70584523199572
 30
0.000000000000003
 70
     8
  0
VERTEX
  5
1D2
330
1B0
100
AcDbEntity
  8
1
  6
Continuous
 62
   174
420
      165
100
AcDbVertex
100
AcDb2dVertex
 10
134.8660245141162
 20
50.20312746279669
 30
0.0000000000000031
 70
     8
  0
VERTEX
  5
1D3
330
1B0
100
AcDbEntity
  8
1
  6
Continuous
 62
   174
420
      165
100
AcDbVertex
100
AcDb2dVertex
 10
134.6732711237264
 20
50.69506735585903
 30
0.0000000000000031
 70
     8
  0
VERTEX
  5
1D4
330
1B0
100
AcDbEntity
  8
1
  6
Continuous
 62
   174
420
      165
100
AcDbVertex
100
AcDb2dVertex
 10
134.4664606194038
 20
51.18128636101373
 30
0.0000000000000031
 70
     8
  0
VERTEX
  5
1D5
330
1B0
100
AcDbEntity
  8
1
  6
Continuous
 62
   174
420
      165
100
AcDbVertex
100
AcDb2dVertex
 10
134.245860716666
 20
51.66140592809179
 30
0.0000000000000032
 70
     8
  0
VERTEX
  5
1D6
330
1B0
100
AcDbEntity
  8
1
  6
Continuous
 62
   174
420
      165
100
AcDbVertex
100
AcDb2dVertex
 10
134.0117391310311
 20
52.13504750692424
 30
0.0000000000000032
 70
     8
  0
VERTEX
  5
1D7
330
1B0
100
AcDbEntity
  8
1
  6
Continuous
 62
   174
420
      165
100
AcDbVertex
100
AcDb2dVertex
 10
133.764374234453
 20
52.60185488439675
 30
0.0000000000000032
 70
     8
  0
VERTEX
  5
1D8
330
1B0
100
AcDbEntity
  8
1
  6
Continuous
 62
   174
420
      165
100
AcDbVertex
100
AcDb2dVertex
 10
133.5040870246303
 20
53.06156119561352
 30
0.0000000000000032
 70
     8
  0
VERTEX
  5
1D9
330
1B0
100
AcDbEntity
  8
1
  6
Continuous
 62
   174
420
      165
100
AcDbVertex
100
AcDb2dVertex
 10
133.2312091556978
 20
53.51392191273347
 30
0.0000000000000033
 70
     8
  0
VERTEX
  5
1DA
330
1B0
100
AcDbEntity
  8
1
  6
Continuous
 62
   174
420
      165
100
AcDbVertex
100
AcDb2dVertex
 10
132.9460722817901
 20
53.95869250791545
 30
0.0000000000000033
 70
     8
  0
VERTEX
  5
1DB
330
1B0
100
AcDbEntity
  8
1
  6
Continuous
 62
   174
420
      165
100
AcDbVertex
100
AcDb2dVertex
 10
132.6490080570421
 20
54.39562845331837
 30
0.0000000000000033
 70
     8
  0
VERTEX
  5
1DC
330
1B0
100
AcDbEntity
  8
1
  6
Continuous
 62
   174
420
      165
100
AcDbVertex
100
AcDb2dVertex
 10
132.3403481355886
 20
54.82448522110109
 30
0.0000000000000034
 70
     8
  0
VERTEX
  5
1DD
330
1B0
100
AcDbEntity
  8
1
  6
Continuous
 62
   174
420
      165
100
AcDbVertex
100
AcDb2dVertex
 10
132.0204241715642
 20
55.2450182834225
 30
0.0000000000000034
 70
     8
  0
VERTEX
  5
1DE
330
1B0
100
AcDbEntity
  8
1
  6
Continuous
 62
   174
420
      165
100
AcDbVertex
100
AcDb2dVertex
 10
131.6895678191037
 20
55.65698311244151
 30
0.0000000000000034
 70
     8
  0
VERTEX
  5
1DF
330
1B0
100
AcDbEntity
  8
1
  6
Continuous
 62
   174
420
      165
100
AcDbVertex
100
AcDb2dVertex
 10
131.3481116329179
 20
56.06015364098809
 30
0.0000000000000034
 70
     8
  0
VERTEX
  5
1E0
330
1B0
100
AcDbEntity
  8
1
  6
Continuous
 62
   174
420
      165
100
AcDbVertex
100
AcDb2dVertex
 10
130.9963917700216
 20
56.45437764457694
 30
0.0000000000000035
 70
     8
  0
VERTEX
  5
1E1
330
1B0
100
AcDbEntity
  8
1
  6
Continuous
 62
   174
420
      165
100
AcDbVertex
100
AcDb2dVertex
 10
130.6347452880054
 20
56.8395213593938
 30
0.0000000000000035
 70
     8
  0
VERTEX
  5
1E2
330
1B0
100
AcDbEntity
  8
1
  6
Continuous
 62
   174
420
      165
100
AcDbVertex
100
AcDb2dVertex
 10
130.2635092444602
 20
57.21545102162444
 30
0.0000000000000035
 70
     8
  0
VERTEX
  5
1E3
330
1B0
100
AcDbEntity
  8
1
  6
Continuous
 62
   174
420
      165
100
AcDbVertex
100
AcDb2dVertex
 10
129.8830206969767
 20
57.58203286745467
 30
0.0000000000000035
 70
     8
  0
VERTEX
  5
1E4
330
1B0
100
AcDbEntity
  8
1
  6
Continuous
 62
   174
420
      165
100
AcDbVertex
100
AcDb2dVertex
 10
129.4936167031456
 20
57.93913313307024
 30
0.0000000000000035
 70
     8
  0
VERTEX
  5
1E5
330
1B0
100
AcDbEntity
  8
1
  6
Continuous
 62
   174
420
      165
100
AcDbVertex
100
AcDb2dVertex
 10
129.0956343205577
 20
58.28661805465696
 30
0.0000000000000036
 70
     8
  0
VERTEX
  5
1E6
330
1B0
100
AcDbEntity
  8
1
  6
Continuous
 62
   174
420
      165
100
AcDbVertex
100
AcDb2dVertex
 10
128.6894106068038
 20
58.62435386840057
 30
0.0000000000000036
 70
     8
  0
VERTEX
  5
1E7
330
1B0
100
AcDbEntity
  8
1
  6
Continuous
 62
   174
420
      165
100
AcDbVertex
100
AcDb2dVertex
 10
128.2752739289204
 20
58.95222027468427
 30
0.0000000000000036
 70
     8
  0
VERTEX
  5
1E8
330
1B0
100
AcDbEntity
  8
1
  6
Continuous
 62
   174
420
      165
100
AcDbVertex
100
AcDb2dVertex
 10
127.853517891727
 20
59.27015083068071
 30
0.0000000000000036
 70
     8
  0
VERTEX
  5
1E9
330
1B0
100
AcDbEntity
  8
1
  6
Continuous
 62
   174
420
      165
100
AcDbVertex
100
AcDb2dVertex
 10
127.4244274094888
 20
59.57809255776
 30
0.0000000000000036
 70
     8
  0
VERTEX
  5
1EA
330
1B0
100
AcDbEntity
  8
1
  6
Continuous
 62
   174
420
      165
100
AcDbVertex
100
AcDb2dVertex
 10
126.9882873964712
 20
59.87599247729218
 30
0.0000000000000037
 70
     8
  0
VERTEX
  5
1EB
330
1B0
100
AcDbEntity
  8
1
  6
Continuous
 62
   174
420
      165
100
AcDbVertex
100
AcDb2dVertex
 10
126.5453827669394
 20
60.16379761064734
 30
0.0000000000000037
 70
     8
  0
VERTEX
  5
1EC
330
1B0
100
AcDbEntity
  8
1
  6
Continuous
 62
   174
420
      165
100
AcDbVertex
100
AcDb2dVertex
 10
126.0959984351587
 20
60.44145497919556
 30
0.0000000000000037
 70
     8
  0
VERTEX
  5
1ED
330
1B0
100
AcDbEntity
  8
1
  6
Continuous
 62
   174
420
      165
100
AcDbVertex
100
AcDb2dVertex
 10
125.6404193153943
 20
60.70891160430688
 30
0.0000000000000037
 70
     8
  0
VERTEX
  5
1EE
330
1B0
100
AcDbEntity
  8
1
  6
Continuous
 62
   174
420
      165
100
AcDbVertex
100
AcDb2dVertex
 10
125.1789303219115
 20
60.96611450735141
 30
0.0000000000000037
 70
     8
  0
VERTEX
  5
1EF
330
1B0
100
AcDbEntity
  8
1
  6
Continuous
 62
   174
420
      165
100
AcDbVertex
100
AcDb2dVertex
 10
124.7118137219899
 20
61.21301471509236
 30
0.0000000000000037
 70
     8
  0
VERTEX
  5
1F0
330
1B0
100
AcDbEntity
  8
1
  6
Continuous
 62
   174
420
      165
100
AcDbVertex
100
AcDb2dVertex
 10
124.2393411949658
 20
61.44957927586552
 30
0.0000000000000038
 70
     8
  0
VERTEX
  5
1F1
330
1B0
100
AcDbEntity
  8
1
  6
Continuous
 62
   174
420
      165
100
AcDbVertex
100
AcDb2dVertex
 10
123.7617817731897
 20
61.67577924339986
 30
0.0000000000000038
 70
     8
  0
VERTEX
  5
1F2
330
1B0
100
AcDbEntity
  8
1
  6
Continuous
 62
   174
420
      165
100
AcDbVertex
100
AcDb2dVertex
 10
123.2794044890123
 20
61.89158567142432
 30
0.0000000000000038
 70
     8
  0
VERTEX
  5
1F3
330
1B0
100
AcDbEntity
  8
1
  6
Continuous
 62
   174
420
      165
100
AcDbVertex
100
AcDb2dVertex
 10
122.7924783747841
 20
62.09696961366787
 30
0.0000000000000038
 70
     8
  0
VERTEX
  5
1F4
330
1B0
100
AcDbEntity
  8
1
  6
Continuous
 62
   174
420
      165
100
AcDbVertex
100
AcDb2dVertex
 10
122.3012724628557
 20
62.29190212385944
 30
0.0000000000000038
 70
     8
  0
VERTEX
  5
1F5
330
1B0
100
AcDbEntity
  8
1
  6
Continuous
 62
   174
420
      165
100
AcDbVertex
100
AcDb2dVertex
 10
121.8060557855776
 20
62.476354255728
 30
0.0000000000000038
 70
     8
  0
VERTEX
  5
1F6
330
1B0
100
AcDbEntity
  8
1
  6
Continuous
 62
   174
420
      165
100
AcDbVertex
100
AcDb2dVertex
 10
121.3070973753006
 20
62.65029706300248
 30
0.0000000000000038
 70
     8
  0
VERTEX
  5
1F7
330
1B0
100
AcDbEntity
  8
1
  6
Continuous
 62
   174
420
      165
100
AcDbVertex
100
AcDb2dVertex
 10
120.8046578127424
 20
62.81370638118266
 30
0.0000000000000038
 70
     8
  0
VERTEX
  5
1F8
330
1B0
100
AcDbEntity
  8
1
  6
Continuous
 62
   174
420
      165
100
AcDbVertex
100
AcDb2dVertex
 10
120.2989638720903
 20
62.96657717285147
 30
0.0000000000000039
 70
     8
  0
VERTEX
  5
1F9
330
1B0
100
AcDbEntity
  8
1
  6
Continuous
 62
   174
420
      165
100
AcDbVertex
100
AcDb2dVertex
 10
119.790233875899
 20
63.10890918236263
 30
0.0000000000000039
 70
     8
  0
VERTEX
  5
1FA
330
1B0
100
AcDbEntity
  8
1
  6
Continuous
 62
   174
420
      165
100
AcDbVertex
100
AcDb2dVertex
 10
119.2786861467231
 20
63.24070215406989
 30
0.0000000000000039
 70
     8
  0
VERTEX
  5
1FB
330
1B0
100
AcDbEntity
  8
1
  6
Continuous
 62
   174
420
      165
100
AcDbVertex
100
AcDb2dVertex
 10
118.7645390071172
 20
63.36195583232698
 30
0.0000000000000039
 70
     8
  0
VERTEX
  5
1FC
330
1B0
100
AcDbEntity
  8
1
  6
Continuous
 62
   174
420
      165
100
AcDbVertex
100
AcDb2dVertex
 10
118.2480107796358
 20
63.47266996148763
 30
0.0000000000000039
 70
     8
  0
VERTEX
  5
1FD
330
1B0
100
AcDbEntity
  8
1
  6
Continuous
 62
   174
420
      165
100
AcDbVertex
100
AcDb2dVertex
 10
117.7293197868336
 20
63.57284428590557
 30
0.0000000000000039
 70
     8
  0
VERTEX
  5
1FE
330
1B0
100
AcDbEntity
  8
1
  6
Continuous
 62
   174
420
      165
100
AcDbVertex
100
AcDb2dVertex
 10
117.2086843512652
 20
63.66247854993457
 30
0.0000000000000039
 70
     8
  0
VERTEX
  5
1FF
330
1B0
100
AcDbEntity
  8
1
  6
Continuous
 62
   174
420
      165
100
AcDbVertex
100
AcDb2dVertex
 10
116.6863231862827
 20
63.74157234204823
 30
0.0000000000000039
 70
     8
  0
VERTEX
  5
200
330
1B0
100
AcDbEntity
  8
1
  6
Continuous
 62
   174
420
      165
100
AcDbVertex
100
AcDb2dVertex
 10
116.1624565684275
 20
63.81012462719979
 30
0.0000000000000039
 70
     8
  0
VERTEX
  5
201
330
1B0
100
AcDbEntity
  8
1
  6
Continuous
 62
   174
420
      165
100
AcDbVertex
100
AcDb2dVertex
 10
115.6373051650386
 20
63.86813421446236
 30
0.0000000000000039
 70
     8
  0
VERTEX
  5
202
330
1B0
100
AcDbEntity
  8
1
  6
Continuous
 62
   174
420
      165
100
AcDbVertex
100
AcDb2dVertex
 10
115.111089643455
 20
63.91559991290908
 30
0.0000000000000039
 70
     8
  0
VERTEX
  5
203
330
1B0
100
AcDbEntity
  8
1
  6
Continuous
 62
   174
420
      165
100
AcDbVertex
100
AcDb2dVertex
 10
114.5840306710156
 20
63.95252053161308
 30
0.0000000000000039
 70
     8
  0
VERTEX
  5
204
330
1B0
100
AcDbEntity
  8
1
  6
Continuous
 62
   174
420
      165
100
AcDbVertex
100
AcDb2dVertex
 10
114.0563489150593
 20
63.97889487964748
 30
0.0000000000000039
 70
     8
  0
VERTEX
  5
205
330
1B0
100
AcDbEntity
  8
1
  6
Continuous
 62
   174
420
      165
100
AcDbVertex
100
AcDb2dVertex
 10
113.5282650429251
 20
63.99472176608541
 30
0.0000000000000039
 70
     8
  0
VERTEX
  5
206
330
1B0
100
AcDbEntity
  8
1
  6
Continuous
 62
   174
420
      165
100
AcDbVertex
100
AcDb2dVertex
 10
112.999999721952
 20
63.99999999999999
 30
0.0000000000000039
 70
     8
  0
SEQEND
  5
1B1
330
1B0
100
AcDbEntity
  8
1
  6
Continuous
 62
   174
420
      165
  0
POLYLINE
  5
209
102
{ACAD_XDICTIONARY
360
207
102
}
330
1F
100
AcDbEntity
  8
1
  6
Continuous
 62
   215
420
 10834597
100
AcDb2dPolyline
 66
     1
 10
0.0
 20
0.0
 30
32.00000000003909
 70
   132
 75
     6
  0
VERTEX
  5
20B
330
209
100
AcDbEntity
  8
1
  6
Continuous
 62
   215
420
 10834597
100
AcDbVertex
100
AcDb2dVertex
 10
97.00000077681254
 20
62.50000000000021
 30
0.0000000000005666
 70
    16
  0
VERTEX
  5
20C
330
209
100
AcDbEntity
  8
1
  6
Continuous
 62
   215
420
 10834597
100
AcDbVertex
100
AcDb2dVertex
 10
91.04342023007945
 20
62.49999691523579
 30
0.0000000000005705
 70
    16
  0
VERTEX
  5
20D
330
209
100
AcDbEntity
  8
1
  6
Continuous
 62
   215
420
 10834597
100
AcDbVertex
100
AcDb2dVertex
 10
82.10872527567392
 20
62.10894818687891
 30
0.0000000000005724
 70
    16
  0
VERTEX
  5
20E
330
209
100
AcDbEntity
  8
1
  6
Continuous
 62
   215
420
 10834597
100
AcDbVertex
100
AcDb2dVertex
 10
70.27262826078488
 20
60.77836862323094
 30
0.0000000000005668
 70
    16
  0
VERTEX
  5
20F
330
209
100
AcDbEntity
  8
1
  6
Continuous
 62
   215
420
 10834597
100
AcDbVertex
100
AcDb2dVertex
 10
61.45889628027012
 20
59.35237573165906
 30
0.0000000000005582
 70
    16
  0
VERTEX
  5
210
330
209
100
AcDbEntity
  8
1
  6
Continuous
 62
   215
420
 10834597
100
AcDbVertex
100
AcDb2dVertex
 10
55.21995251021251
 20
58.0106681796606
 30
0.0000000000005488
 70
    16
  0
VERTEX
  5
211
330
209
100
AcDbEntity
  8
1
  6
Continuous
 62
   215
420
 10834597
100
AcDbVertex
100
AcDb2dVertex
 10
51.91850952522292
 20
57.18532646759839
 30
0.0000000000005426
 70
    16
  0
VERTEX
  5
212
330
209
100
AcDbEntity
  8
1
  6
Continuous
 62
   215
420
 10834597
100
AcDbVertex
100
AcDb2dVertex
 10
51.49999999999909
 20
57.07879498762243
 30
0.0000000000005418
 70
    16
  0
VERTEX
  5
213
330
209
100
AcDbEntity
  8
1
  6
Continuous
 62
   215
420
 10834597
100
AcDbVertex
100
AcDb2dVertex
 10
97.00000077681254
 20
62.50000000000021
 30
0.0000000000005666
 70
     8
  0
VERTEX
  5
214
330
209
100
AcDbEntity
  8
1
  6
Continuous
 62
   215
420
 10834597
100
AcDbVertex
100
AcDb2dVertex
 10
94.76633835786376
 20
62.4877610763419
 30
0.000000000000568
 70
     8
  0
VERTEX
  5
215
330
209
100
AcDbEntity
  8
1
  6
Continuous
 62
   215
420
 10834597
100
AcDbVertex
100
AcDb2dVertex
 10
92.5329856721599
 20
62.45097606410503
 30
0.0000000000005691
 70
     8
  0
VERTEX
  5
216
330
209
100
AcDbEntity
  8
1
  6
Continuous
 62
   215
420
 10834597
100
AcDbVertex
100
AcDb2dVertex
 10
90.30024146134001
 20
62.38953913103664
 30
0.0000000000005699
 70
     8
  0
VERTEX
  5
217
330
209
100
AcDbEntity
  8
1
  6
Continuous
 62
   215
420
 10834597
100
AcDbVertex
100
AcDb2dVertex
 10
88.06840446704317
 20
62.3033444448838
 30
0.0000000000005705
 70
     8
  0
VERTEX
  5
218
330
209
100
AcDbEntity
  8
1
  6
Continuous
 62
   215
420
 10834597
100
AcDbVertex
100
AcDb2dVertex
 10
85.8377734309084
 20
62.19228617339358
 30
0.0000000000005708
 70
     8
  0
VERTEX
  5
219
330
209
100
AcDbEntity
  8
1
  6
Continuous
 62
   215
420
 10834597
100
AcDbVertex
100
AcDb2dVertex
 10
83.60864709457478
 20
62.05625848431303
 30
0.0000000000005709
 70
     8
  0
VERTEX
  5
21A
330
209
100
AcDbEntity
  8
1
  6
Continuous
 62
   215
420
 10834597
100
AcDbVertex
100
AcDb2dVertex
 10
81.38132419968132
 20
61.89515554538922
 30
0.0000000000005708
 70
     8
  0
VERTEX
  5
21B
330
209
100
AcDbEntity
  8
1
  6
Continuous
 62
   215
420
 10834597
100
AcDbVertex
100
AcDb2dVertex
 10
79.15610348786709
 20
61.70887152436922
 30
0.0000000000005704
 70
     8
  0
VERTEX
  5
21C
330
209
100
AcDbEntity
  8
1
  6
Continuous
 62
   215
420
 10834597
100
AcDbVertex
100
AcDb2dVertex
 10
78.04437669752019
 20
61.60624810114354
 30
0.00000000000057
 70
     8
  0
VERTEX
  5
21D
330
209
100
AcDbEntity
  8
1
  6
Continuous
 62
   215
420
 10834597
100
AcDbVertex
100
AcDb2dVertex
 10
76.93329882191763
 20
61.49725711419528
 30
0.0000000000005697
 70
     8
  0
VERTEX
  5
21E
330
209
100
AcDbEntity
  8
1
  6
Continuous
 62
   215
420
 10834597
100
AcDbVertex
100
AcDb2dVertex
 10
75.8229185446242
 20
61.38185272838923
 30
0.0000000000005692
 70
     8
  0
VERTEX
  5
21F
330
209
100
AcDbEntity
  8
1
  6
Continuous
 62
   215
420
 10834597
100
AcDbVertex
100
AcDb2dVertex
 10
74.71328454920462
 20
61.25998910859015
 30
0.0000000000005687
 70
     8
  0
VERTEX
  5
220
330
209
100
AcDbEntity
  8
1
  6
Continuous
 62
   215
420
 10834597
100
AcDbVertex
100
AcDb2dVertex
 10
73.60444551922365
 20
61.13162041966277
 30
0.0000000000005682
 70
     8
  0
VERTEX
  5
221
330
209
100
AcDbEntity
  8
1
  6
Continuous
 62
   215
420
 10834597
100
AcDbVertex
100
AcDb2dVertex
 10
72.4964501382461
 20
60.99670082647184
 30
0.0000000000005675
 70
     8
  0
VERTEX
  5
222
330
209
100
AcDbEntity
  8
1
  6
Continuous
 62
   215
420
 10834597
100
AcDbVertex
100
AcDb2dVertex
 10
71.3893470898367
 20
60.8551844938821
 30
0.0000000000005668
 70
     8
  0
VERTEX
  5
223
330
209
100
AcDbEntity
  8
1
  6
Continuous
 62
   215
420
 10834597
100
AcDbVertex
100
AcDb2dVertex
 10
70.28318505756023
 20
60.70702558675831
 30
0.0000000000005661
 70
     8
  0
VERTEX
  5
224
330
209
100
AcDbEntity
  8
1
  6
Continuous
 62
   215
420
 10834597
100
AcDbVertex
100
AcDb2dVertex
 10
69.17801310188538
 20
60.55217870117153
 30
0.0000000000005652
 70
     8
  0
VERTEX
  5
225
330
209
100
AcDbEntity
  8
1
  6
Continuous
 62
   215
420
 10834597
100
AcDbVertex
100
AcDb2dVertex
 10
68.07388179089679
 20
60.3906001580182
 30
0.0000000000005643
 70
     8
  0
VERTEX
  5
226
330
209
100
AcDbEntity
  8
1
  6
Continuous
 62
   215
420
 10834597
100
AcDbVertex
100
AcDb2dVertex
 10
66.97084206958293
 20
60.2222467094011
 30
0.0000000000005634
 70
     8
  0
VERTEX
  5
227
330
209
100
AcDbEntity
  8
1
  6
Continuous
 62
   215
420
 10834597
100
AcDbVertex
100
AcDb2dVertex
 10
65.86894488293234
 20
60.04707510742296
 30
0.0000000000005623
 70
     8
  0
VERTEX
  5
228
330
209
100
AcDbEntity
  8
1
  6
Continuous
 62
   215
420
 10834597
100
AcDbVertex
100
AcDb2dVertex
 10
64.76824117593361
 20
59.86504210418654
 30
0.0000000000005612
 70
     8
  0
VERTEX
  5
229
330
209
100
AcDbEntity
  8
1
  6
Continuous
 62
   215
420
 10834597
100
AcDbVertex
100
AcDb2dVertex
 10
63.66878189357521
 20
59.67610445179463
 30
0.00000000000056
 70
     8
  0
VERTEX
  5
22A
330
209
100
AcDbEntity
  8
1
  6
Continuous
 62
   215
420
 10834597
100
AcDbVertex
100
AcDb2dVertex
 10
62.57061798084571
 20
59.48021890234997
 30
0.0000000000005588
 70
     8
  0
VERTEX
  5
22B
330
209
100
AcDbEntity
  8
1
  6
Continuous
 62
   215
420
 10834597
100
AcDbVertex
100
AcDb2dVertex
 10
61.47380038273364
 20
59.27734220795532
 30
0.0000000000005574
 70
     8
  0
VERTEX
  5
22C
330
209
100
AcDbEntity
  8
1
  6
Continuous
 62
   215
420
 10834597
100
AcDbVertex
100
AcDb2dVertex
 10
60.3783862125784
 20
59.06742254950726
 30
0.000000000000556
 70
     8
  0
VERTEX
  5
22D
330
209
100
AcDbEntity
  8
1
  6
Continuous
 62
   215
420
 10834597
100
AcDbVertex
100
AcDb2dVertex
 10
59.28445725712293
 20
58.85037382307775
 30
0.0000000000005546
 70
     8
  0
VERTEX
  5
22E
330
209
100
AcDbEntity
  8
1
  6
Continuous
 62
   215
420
 10834597
100
AcDbVertex
100
AcDb2dVertex
 10
58.19210147146105
 20
58.62610135353249
 30
0.000000000000553
 70
     8
  0
VERTEX
  5
22F
330
209
100
AcDbEntity
  8
1
  6
Continuous
 62
   215
420
 10834597
100
AcDbVertex
100
AcDb2dVertex
 10
57.10140681068658
 20
58.39451046573726
 30
0.0000000000005514
 70
     8
  0
VERTEX
  5
230
330
209
100
AcDbEntity
  8
1
  6
Continuous
 62
   215
420
 10834597
100
AcDbVertex
100
AcDb2dVertex
 10
56.01246122989334
 20
58.15550648455779
 30
0.0000000000005497
 70
     8
  0
VERTEX
  5
231
330
209
100
AcDbEntity
  8
1
  6
Continuous
 62
   215
420
 10834597
100
AcDbVertex
100
AcDb2dVertex
 10
54.92535268417512
 20
57.90899473485982
 30
0.0000000000005479
 70
     8
  0
VERTEX
  5
232
330
209
100
AcDbEntity
  8
1
  6
Continuous
 62
   215
420
 10834597
100
AcDbVertex
100
AcDb2dVertex
 10
53.84016912862578
 20
57.65488054150913
 30
0.0000000000005461
 70
     8
  0
VERTEX
  5
233
330
209
100
AcDbEntity
  8
1
  6
Continuous
 62
   215
420
 10834597
100
AcDbVertex
100
AcDb2dVertex
 10
52.75699851833911
 20
57.39306922937144
 30
0.0000000000005441
 70
     8
  0
VERTEX
  5
234
330
209
100
AcDbEntity
  8
1
  6
Continuous
 62
   215
420
 10834597
100
AcDbVertex
100
AcDb2dVertex
 10
52.59971528835123
 20
57.3543643867283
 30
0.0000000000005439
 70
     8
  0
VERTEX
  5
235
330
209
100
AcDbEntity
  8
1
  6
Continuous
 62
   215
420
 10834597
100
AcDbVertex
100
AcDb2dVertex
 10
52.44247674194146
 20
57.31549459272081
 30
0.0000000000005436
 70
     8
  0
VERTEX
  5
236
330
209
100
AcDbEntity
  8
1
  6
Continuous
 62
   215
420
 10834597
100
AcDbVertex
100
AcDb2dVertex
 10
52.28528316806295
 20
57.27645954623465
 30
0.0000000000005433
 70
     8
  0
VERTEX
  5
237
330
209
100
AcDbEntity
  8
1
  6
Continuous
 62
   215
420
 10834597
100
AcDbVertex
100
AcDb2dVertex
 10
52.12813485566881
 20
57.23725894615551
 30
0.000000000000543
 70
     8
  0
VERTEX
  5
238
330
209
100
AcDbEntity
  8
1
  6
Continuous
 62
   215
420
 10834597
100
AcDbVertex
100
AcDb2dVertex
 10
51.97103209371222
 20
57.19789249136904
 30
0.0000000000005427
 70
     8
  0
VERTEX
  5
239
330
209
100
AcDbEntity
  8
1
  6
Continuous
 62
   215
420
 10834597
100
AcDbVertex
100
AcDb2dVertex
 10
51.81397517114631
 20
57.15835988076092
 30
0.0000000000005424
 70
     8
  0
VERTEX
  5
23A
330
209
100
AcDbEntity
  8
1
  6
Continuous
 62
   215
420
 10834597
100
AcDbVertex
100
AcDb2dVertex
 10
51.65696437692422
 20
57.11866081321682
 30
0.0000000000005421
 70
     8
  0
VERTEX
  5
23B
330
209
100
AcDbEntity
  8
1
  6
Continuous
 62
   215
420
 10834597
100
AcDbVertex
100
AcDb2dVertex
 10
51.49999999999908
 20
57.07879498762243
 30
0.0000000000005418
 70
     8
  0
SEQEND
  5
20A
330
209
100
AcDbEntity
  8
1
  6
Continuous
 62
   215
420
 10834597
  0
POLYLINE
  5
23E
102
{ACAD_XDICTIONARY
360
23C
102
}
330
1F
100
AcDbEntity
  8
1
  6
Continuous
 62
   174
420
      165
100
AcDb2dPolyline
 66
     1
 10
0.0
 20
0.0
 30
32.00000000003964
 70
   132
 75
     6
  0
VERTEX
  5
240
330
23E
100
AcDbEntity
  8
1
  6
Continuous
 62
   174
420
      165
100
AcDbVertex
100
AcDb2dVertex
 10
120.000000010725
 20
0.0
 30
0.0
 70
    16
  0
VERTEX
  5
241
330
23E
100
AcDbEntity
  8
1
  6
Continuous
 62
   174
420
      165
100
AcDbVertex
100
AcDb2dVertex
 10
120.2590314444035
 20
0.0000087740184112
 30
0.0
 70
    16
  0
VERTEX
  5
242
330
23E
100
AcDbEntity
  8
1
  6
Continuous
 62
   174
420
      165
100
AcDbVertex
100
AcDb2dVertex
 10
120.7768763774337
 20
0.0349286330755613
 30
0.0
 70
    16
  0
VERTEX
  5
243
330
23E
100
AcDbEntity
  8
1
  6
Continuous
 62
   174
420
      165
100
AcDbVertex
100
AcDb2dVertex
 10
121.7951971789657
 20
0.2381008873051142
 30
0.0
 70
    16
  0
VERTEX
  5
244
330
23E
100
AcDbEntity
  8
1
  6
Continuous
 62
   174
420
      165
100
AcDbVertex
100
AcDb2dVertex
 10
123.004725085155
 20
0.7262428609584213
 30
0.0
 70
    16
  0
VERTEX
  5
245
330
23E
100
AcDbEntity
  8
1
  6
Continuous
 62
   174
420
      165
100
AcDbVertex
100
AcDb2dVertex
 10
124.3087739099118
 20
1.575894787489685
 30
0.0000000000000001
 70
    16
  0
VERTEX
  5
246
330
23E
100
AcDbEntity
  8
1
  6
Continuous
 62
   174
420
      165
100
AcDbVertex
100
AcDb2dVertex
 10
125.4733138835897
 20
2.613990724339522
 30
0.0000000000000002
 70
    16
  0
VERTEX
  5
247
330
23E
100
AcDbEntity
  8
1
  6
Continuous
 62
   174
420
      165
100
AcDbVertex
100
AcDb2dVertex
 10
126.5111683866872
 20
3.770899711260239
 30
0.0000000000000002
 70
    16
  0
VERTEX
  5
248
330
23E
100
AcDbEntity
  8
1
  6
Continuous
 62
   174
420
      165
100
AcDbVertex
100
AcDb2dVertex
 10
127.7527824817182
 20
5.433267040175989
 30
0.0000000000000003
 70
    16
  0
VERTEX
  5
249
330
23E
100
AcDbEntity
  8
1
  6
Continuous
 62
   174
420
      165
100
AcDbVertex
100
AcDb2dVertex
 10
129.0781104194238
 20
7.663098764546554
 30
0.0000000000000005
 70
    16
  0
VERTEX
  5
24A
330
23E
100
AcDbEntity
  8
1
  6
Continuous
 62
   174
420
      165
100
AcDbVertex
100
AcDb2dVertex
 10
130.4051746714769
 20
10.47535867846245
 30
0.0000000000000006
 70
    16
  0
VERTEX
  5
24B
330
23E
100
AcDbEntity
  8
1
  6
Continuous
 62
   174
420
      165
100
AcDbVertex
100
AcDb2dVertex
 10
131.5204756883463
 20
13.37907551630004
 30
0.0000000000000008
 70
    16
  0
VERTEX
  5
24C
330
23E
100
AcDbEntity
  8
1
  6
Continuous
 62
   174
420
      165
100
AcDbVertex
100
AcDb2dVertex
 10
132.4695210573367
 20
16.3389923445919
 30
0.000000000000001
 70
    16
  0
VERTEX
  5
24D
330
23E
100
AcDbEntity
  8
1
  6
Continuous
 62
   174
420
      165
100
AcDbVertex
100
AcDb2dVertex
 10
133.5404767883709
 20
20.34380441584495
 30
0.0000000000000012
 70
    16
  0
VERTEX
  5
24E
330
23E
100
AcDbEntity
  8
1
  6
Continuous
 62
   174
420
      165
100
AcDbVertex
100
AcDb2dVertex
 10
134.3676865461852
 20
24.40630901719239
 30
0.0000000000000015
 70
    16
  0
VERTEX
  5
24F
330
23E
100
AcDbEntity
  8
1
  6
Continuous
 62
   174
420
      165
100
AcDbVertex
100
AcDb2dVertex
 10
134.990761375774
 20
28.50397342201196
 30
0.0000000000000017
 70
    16
  0
VERTEX
  5
250
330
23E
100
AcDbEntity
  8
1
  6
Continuous
 62
   174
420
      165
100
AcDbVertex
100
AcDb2dVertex
 10
135.3649085278295
 20
31.5897456224683
 30
0.0000000000000019
 70
    16
  0
VERTEX
  5
251
330
23E
100
AcDbEntity
  8
1
  6
Continuous
 62
   174
420
      165
100
AcDbVertex
100
AcDb2dVertex
 10
135.651522219391
 20
34.68457863085
 30
0.0000000000000021
 70
    16
  0
VERTEX
  5
252
330
23E
100
AcDbEntity
  8
1
  6
Continuous
 62
   174
420
      165
100
AcDbVertex
100
AcDb2dVertex
 10
135.9212489619815
 20
38.8200203209681
 30
0.0000000000000024
 70
    16
  0
VERTEX
  5
253
330
23E
100
AcDbEntity
  8
1
  6
Continuous
 62
   174
420
      165
100
AcDbVertex
100
AcDb2dVertex
 10
135.9999968398581
 20
41.92810930087312
 30
0.0000000000000026
 70
    16
  0
VERTEX
  5
254
330
23E
100
AcDbEntity
  8
1
  6
Continuous
 62
   174
420
      165
100
AcDbVertex
100
AcDb2dVertex
 10
136.0
 20
44.0000010608644
 30
0.0000000000000027
 70
    16
  0
VERTEX
  5
255
330
23E
100
AcDbEntity
  8
1
  6
Continuous
 62
   174
420
      165
100
AcDbVertex
100
AcDb2dVertex
 10
120.000000010725
 20
0.0
 30
0.0
 70
     8
  0
VERTEX
  5
256
330
23E
100
AcDbEntity
  8
1
  6
Continuous
 62
   174
420
      165
100
AcDbVertex
100
AcDb2dVertex
 10
120.0971276628509
 20
0.0008197807720374
 30
0.0
 70
     8
  0
VERTEX
  5
257
330
23E
100
AcDbEntity
  8
1
  6
Continuous
 62
   174
420
      165
100
AcDbVertex
100
AcDb2dVertex
 10
120.1942209332985
 20
0.0032664129767179
 30
0.0
 70
     8
  0
VERTEX
  5
258
330
23E
100
AcDbEntity
  8
1
  6
Continuous
 62
   174
420
      165
100
AcDbVertex
100
AcDb2dVertex
 10
120.2912556560612
 20
0.007330702217607
 30
0.0
 70
     8
  0
VERTEX
  5
259
330
23E
100
AcDbEntity
  8
1
  6
Continuous
 62
   174
420
      165
100
AcDbVertex
100
AcDb2dVertex
 10
120.3882076651324
 20
0.01300345409827
 30
0.0
 70
     8
  0
VERTEX
  5
25A
330
23E
100
AcDbEntity
  8
1
  6
Continuous
 62
   174
420
      165
100
AcDbVertex
100
AcDb2dVertex
 10
120.4850527945053
 20
0.0202754742222723
 30
0.0
 70
     8
  0
VERTEX
  5
25B
330
23E
100
AcDbEntity
  8
1
  6
Continuous
 62
   174
420
      165
100
AcDbVertex
100
AcDb2dVertex
 10
120.5817668781732
 20
0.0291375681931791
 30
0.0
 70
     8
  0
VERTEX
  5
25C
330
23E
100
AcDbEntity
  8
1
  6
Continuous
 62
   174
420
      165
100
AcDbVertex
100
AcDb2dVertex
 10
120.6783257501296
 20
0.0395805416145559
 30
0.0
 70
     8
  0
VERTEX
  5
25D
330
23E
100
AcDbEntity
  8
1
  6
Continuous
 62
   174
420
      165
100
AcDbVertex
100
AcDb2dVertex
 10
120.7747052443677
 20
0.0515952000899679
 30
0.0
 70
     8
  0
VERTEX
  5
25E
330
23E
100
AcDbEntity
  8
1
  6
Continuous
 62
   174
420
      165
100
AcDbVertex
100
AcDb2dVertex
 10
120.8708812113377
 20
0.0651718214857522
 30
0.0
 70
     8
  0
VERTEX
  5
25F
330
23E
100
AcDbEntity
  8
1
  6
Continuous
 62
   174
420
      165
100
AcDbVertex
100
AcDb2dVertex
 10
120.9668295673173
 20
0.0802985727193327
 30
0.0
 70
     8
  0
VERTEX
  5
260
330
23E
100
AcDbEntity
  8
1
  6
Continuous
 62
   174
420
      165
100
AcDbVertex
100
AcDb2dVertex
 10
121.0625262450412
 20
0.0969630929709049
 30
0.0
 70
     8
  0
VERTEX
  5
261
330
23E
100
AcDbEntity
  8
1
  6
Continuous
 62
   174
420
      165
100
AcDbVertex
100
AcDb2dVertex
 10
121.1579471772439
 20
0.1151530214206642
 30
0.0
 70
     8
  0
VERTEX
  5
262
330
23E
100
AcDbEntity
  8
1
  6
Continuous
 62
   174
420
      165
100
AcDbVertex
100
AcDb2dVertex
 10
121.25306829666
 20
0.1348559972488062
 30
0.0
 70
     8
  0
VERTEX
  5
263
330
23E
100
AcDbEntity
  8
1
  6
Continuous
 62
   174
420
      165
100
AcDbVertex
100
AcDb2dVertex
 10
121.347865536024
 20
0.1560596596355265
 30
0.0
 70
     8
  0
VERTEX
  5
264
330
23E
100
AcDbEntity
  8
1
  6
Continuous
 62
   174
420
      165
100
AcDbVertex
100
AcDb2dVertex
 10
121.4423148280706
 20
0.1787516477610204
 30
0.0
 70
     8
  0
VERTEX
  5
265
330
23E
100
AcDbEntity
  8
1
  6
Continuous
 62
   174
420
      165
100
AcDbVertex
100
AcDb2dVertex
 10
121.5363921055343
 20
0.2029196008054837
 30
0.0
 70
     8
  0
VERTEX
  5
266
330
23E
100
AcDbEntity
  8
1
  6
Continuous
 62
   174
420
      165
100
AcDbVertex
100
AcDb2dVertex
 10
121.7233514673811
 20
0.2556143714016184
 30
0.0
 70
     8
  0
VERTEX
  5
267
330
23E
100
AcDbEntity
  8
1
  6
Continuous
 62
   174
420
      165
100
AcDbVertex
100
AcDb2dVertex
 10
121.9086366820898
 20
0.3139471500130863
 30
0.0
 70
     8
  0
VERTEX
  5
268
330
23E
100
AcDbEntity
  8
1
  6
Continuous
 62
   174
420
      165
100
AcDbVertex
100
AcDb2dVertex
 10
122.0921579299149
 20
0.3777015282585614
 30
0.0
 70
     8
  0
VERTEX
  5
269
330
23E
100
AcDbEntity
  8
1
  6
Continuous
 62
   174
420
      165
100
AcDbVertex
100
AcDb2dVertex
 10
122.2738253911116
 20
0.4466610977567179
 30
0.0
 70
     8
  0
VERTEX
  5
26A
330
23E
100
AcDbEntity
  8
1
  6
Continuous
 62
   174
420
      165
100
AcDbVertex
100
AcDb2dVertex
 10
122.4535492459345
 20
0.5206094501262296
 30
0.0
 70
     8
  0
VERTEX
  5
26B
330
23E
100
AcDbEntity
  8
1
  6
Continuous
 62
   174
420
      165
100
AcDbVertex
100
AcDb2dVertex
 10
122.6312396746387
 20
0.5993301769857706
 30
0.0
 70
     8
  0
VERTEX
  5
26C
330
23E
100
AcDbEntity
  8
1
  6
Continuous
 62
   174
420
      165
100
AcDbVertex
100
AcDb2dVertex
 10
122.8068068574789
 20
0.6826068699540152
 30
0.0
 70
     8
  0
VERTEX
  5
26D
330
23E
100
AcDbEntity
  8
1
  6
Continuous
 62
   174
420
      165
100
AcDbVertex
100
AcDb2dVertex
 10
122.9801609747099
 20
0.7702231206496369
 30
0.0
 70
     8
  0
VERTEX
  5
26E
330
23E
100
AcDbEntity
  8
1
  6
Continuous
 62
   174
420
      165
100
AcDbVertex
100
AcDb2dVertex
 10
123.1512297402851
 20
0.8619740322614312
 30
0.0000000000000001
 70
     8
  0
VERTEX
  5
26F
330
23E
100
AcDbEntity
  8
1
  6
Continuous
 62
   174
420
      165
100
AcDbVertex
100
AcDb2dVertex
 10
123.3200110029506
 20
0.9577007542586736
 30
0.0000000000000001
 70
     8
  0
VERTEX
  5
270
330
23E
100
AcDbEntity
  8
1
  6
Continuous
 62
   174
420
      165
100
AcDbVertex
100
AcDb2dVertex
 10
123.4865201451508
 20
1.057255947680762
 30
0.0000000000000001
 70
     8
  0
VERTEX
  5
271
330
23E
100
AcDbEntity
  8
1
  6
Continuous
 62
   174
420
      165
100
AcDbVertex
100
AcDb2dVertex
 10
123.6507725493304
 20
1.160492273567092
 30
0.0000000000000001
 70
     8
  0
VERTEX
  5
272
330
23E
100
AcDbEntity
  8
1
  6
Continuous
 62
   174
420
      165
100
AcDbVertex
100
AcDb2dVertex
 10
123.8127835979337
 20
1.267262392957063
 30
0.0000000000000001
 70
     8
  0
VERTEX
  5
273
330
23E
100
AcDbEntity
  8
1
  6
Continuous
 62
   174
420
      165
100
AcDbVertex
100
AcDb2dVertex
 10
123.9725686734055
 20
1.377418966890069
 30
0.0000000000000001
 70
     8
  0
VERTEX
  5
274
330
23E
100
AcDbEntity
  8
1
  6
Continuous
 62
   174
420
      165
100
AcDbVertex
100
AcDb2dVertex
 10
124.1301431581901
 20
1.49081465640551
 30
0.0000000000000001
 70
     8
  0
VERTEX
  5
275
330
23E
100
AcDbEntity
  8
1
  6
Continuous
 62
   174
420
      165
100
AcDbVertex
100
AcDb2dVertex
 10
124.285522434732
 20
1.607302122542781
 30
0.0000000000000001
 70
     8
  0
VERTEX
  5
276
330
23E
100
AcDbEntity
  8
1
  6
Continuous
 62
   174
420
      165
100
AcDbVertex
100
AcDb2dVertex
 10
124.4387234960127
 20
1.726735916506507
 30
0.0000000000000001
 70
     8
  0
VERTEX
  5
277
330
23E
100
AcDbEntity
  8
1
  6
Continuous
 62
   174
420
      165
100
AcDbVertex
100
AcDb2dVertex
 10
124.5897697771602
 20
1.848978150162228
 30
0.0000000000000001
 70
     8
  0
VERTEX
  5
278
330
23E
100
AcDbEntity
  8
1
  6
Continuous
 62
   174
420
      165
100
AcDbVertex
100
AcDb2dVertex
 10
124.7386863238397
 20
1.97389282554071
 30
0.0000000000000001
 70
     8
  0
VERTEX
  5
279
330
23E
100
AcDbEntity
  8
1
  6
Continuous
 62
   174
420
      165
100
AcDbVertex
100
AcDb2dVertex
 10
124.8854981817162
 20
2.101343944672717
 30
0.0000000000000001
 70
     8
  0
VERTEX
  5
27A
330
23E
100
AcDbEntity
  8
1
  6
Continuous
 62
   174
420
      165
100
AcDbVertex
100
AcDb2dVertex
 10
125.0302303964548
 20
2.231195509589017
 30
0.0000000000000001
 70
     8
  0
VERTEX
  5
27B
330
23E
100
AcDbEntity
  8
1
  6
Continuous
 62
   174
420
      165
100
AcDbVertex
100
AcDb2dVertex
 10
125.1729080137204
 20
2.363311522320376
 30
0.0000000000000001
 70
     8
  0
VERTEX
  5
27C
330
23E
100
AcDbEntity
  8
1
  6
Continuous
 62
   174
420
      165
100
AcDbVertex
100
AcDb2dVertex
 10
125.3135560791781
 20
2.49755598489756
 30
0.0000000000000002
 70
     8
  0
VERTEX
  5
27D
330
23E
100
AcDbEntity
  8
1
  6
Continuous
 62
   174
420
      165
100
AcDbVertex
100
AcDb2dVertex
 10
125.452199638493
 20
2.633792899351335
 30
0.0000000000000002
 70
     8
  0
VERTEX
  5
27E
330
23E
100
AcDbEntity
  8
1
  6
Continuous
 62
   174
420
      165
100
AcDbVertex
100
AcDb2dVertex
 10
125.5888660869909
 20
2.771899511338752
 30
0.0000000000000002
 70
     8
  0
VERTEX
  5
27F
330
23E
100
AcDbEntity
  8
1
  6
Continuous
 62
   174
420
      165
100
AcDbVertex
100
AcDb2dVertex
 10
125.7235922186415
 20
2.911806041021993
 30
0.0000000000000002
 70
     8
  0
VERTEX
  5
280
330
23E
100
AcDbEntity
  8
1
  6
Continuous
 62
   174
420
      165
100
AcDbVertex
100
AcDb2dVertex
 10
125.8564171770749
 20
3.053455952189526
 30
0.0000000000000002
 70
     8
  0
VERTEX
  5
281
330
23E
100
AcDbEntity
  8
1
  6
Continuous
 62
   174
420
      165
100
AcDbVertex
100
AcDb2dVertex
 10
125.9873801059217
 20
3.196792708629818
 30
0.0000000000000002
 70
     8
  0
VERTEX
  5
282
330
23E
100
AcDbEntity
  8
1
  6
Continuous
 62
   174
420
      165
100
AcDbVertex
100
AcDb2dVertex
 10
126.1165201488122
 20
3.341759774131337
 30
0.0000000000000002
 70
     8
  0
VERTEX
  5
283
330
23E
100
AcDbEntity
  8
1
  6
Continuous
 62
   174
420
      165
100
AcDbVertex
100
AcDb2dVertex
 10
126.2438764493768
 20
3.488300612482548
 30
0.0000000000000002
 70
     8
  0
VERTEX
  5
284
330
23E
100
AcDbEntity
  8
1
  6
Continuous
 62
   174
420
      165
100
AcDbVertex
100
AcDb2dVertex
 10
126.3694881512459
 20
3.636358687471921
 30
0.0000000000000002
 70
     8
  0
VERTEX
  5
285
330
23E
100
AcDbEntity
  8
1
  6
Continuous
 62
   174
420
      165
100
AcDbVertex
100
AcDb2dVertex
 10
126.4933943980498
 20
3.785877462887922
 30
0.0000000000000002
 70
     8
  0
VERTEX
  5
286
330
23E
100
AcDbEntity
  8
1
  6
Continuous
 62
   174
420
      165
100
AcDbVertex
100
AcDb2dVertex
 10
126.6156330074166
 20
3.936800346873129
 30
0.0000000000000002
 70
     8
  0
VERTEX
  5
287
330
23E
100
AcDbEntity
  8
1
  6
Continuous
 62
   174
420
      165
100
AcDbVertex
100
AcDb2dVertex
 10
126.7362364929647
 20
4.089070524986566
 30
0.0000000000000003
 70
     8
  0
VERTEX
  5
288
330
23E
100
AcDbEntity
  8
1
  6
Continuous
 62
   174
420
      165
100
AcDbVertex
100
AcDb2dVertex
 10
126.8552360423099
 20
4.242631127141363
 30
0.0000000000000003
 70
     8
  0
VERTEX
  5
289
330
23E
100
AcDbEntity
  8
1
  6
Continuous
 62
   174
420
      165
100
AcDbVertex
100
AcDb2dVertex
 10
126.9726628430684
 20
4.397425283250656
 30
0.0000000000000003
 70
     8
  0
VERTEX
  5
28A
330
23E
100
AcDbEntity
  8
1
  6
Continuous
 62
   174
420
      165
100
AcDbVertex
100
AcDb2dVertex
 10
127.0885480828562
 20
4.553396123227577
 30
0.0000000000000003
 70
     8
  0
VERTEX
  5
28B
330
23E
100
AcDbEntity
  8
1
  6
Continuous
 62
   174
420
      165
100
AcDbVertex
100
AcDb2dVertex
 10
127.2029229492892
 20
4.71048677698526
 30
0.0000000000000003
 70
     8
  0
VERTEX
  5
28C
330
23E
100
AcDbEntity
  8
1
  6
Continuous
 62
   174
420
      165
100
AcDbVertex
100
AcDb2dVertex
 10
127.3158186299834
 20
4.868640374436838
 30
0.0000000000000003
 70
     8
  0
VERTEX
  5
28D
330
23E
100
AcDbEntity
  8
1
  6
Continuous
 62
   174
420
      165
100
AcDbVertex
100
AcDb2dVertex
 10
127.4272663125549
 20
5.027800045495444
 30
0.0000000000000003
 70
     8
  0
VERTEX
  5
28E
330
23E
100
AcDbEntity
  8
1
  6
Continuous
 62
   174
420
      165
100
AcDbVertex
100
AcDb2dVertex
 10
127.6459331986833
 20
5.348951275748814
 30
0.0000000000000003
 70
     8
  0
VERTEX
  5
28F
330
23E
100
AcDbEntity
  8
1
  6
Continuous
 62
   174
420
      165
100
AcDbVertex
100
AcDb2dVertex
 10
127.8591269330513
 20
5.673691245363122
 30
0.0000000000000003
 70
     8
  0
VERTEX
  5
290
330
23E
100
AcDbEntity
  8
1
  6
Continuous
 62
   174
420
      165
100
AcDbVertex
100
AcDb2dVertex
 10
128.0670416059255
 20
6.001811879618661
 30
0.0000000000000004
 70
     8
  0
VERTEX
  5
291
330
23E
100
AcDbEntity
  8
1
  6
Continuous
 62
   174
420
      165
100
AcDbVertex
100
AcDb2dVertex
 10
128.2698713075727
 20
6.333105103795728
 30
0.0000000000000004
 70
     8
  0
VERTEX
  5
292
330
23E
100
AcDbEntity
  8
1
  6
Continuous
 62
   174
420
      165
100
AcDbVertex
100
AcDb2dVertex
 10
128.4678101282596
 20
6.667362843174612
 30
0.0000000000000004
 70
     8
  0
VERTEX
  5
293
330
23E
100
AcDbEntity
  8
1
  6
Continuous
 62
   174
420
      165
100
AcDbVertex
100
AcDb2dVertex
 10
128.6610521582528
 20
7.004377023035604
 30
0.0000000000000004
 70
     8
  0
VERTEX
  5
294
330
23E
100
AcDbEntity
  8
1
  6
Continuous
 62
   174
420
      165
100
AcDbVertex
100
AcDb2dVertex
 10
128.849791487819
 20
7.343939568659001
 30
0.0000000000000004
 70
     8
  0
VERTEX
  5
295
330
23E
100
AcDbEntity
  8
1
  6
Continuous
 62
   174
420
      165
100
AcDbVertex
100
AcDb2dVertex
 10
129.0342222072248
 20
7.685842405325089
 30
0.0000000000000005
 70
     8
  0
VERTEX
  5
296
330
23E
100
AcDbEntity
  8
1
  6
Continuous
 62
   174
420
      165
100
AcDbVertex
100
AcDb2dVertex
 10
129.2145228441789
 20
8.029897487394816
 30
0.0000000000000005
 70
     8
  0
VERTEX
  5
297
330
23E
100
AcDbEntity
  8
1
  6
Continuous
 62
   174
420
      165
100
AcDbVertex
100
AcDb2dVertex
 10
129.3908096761573
 20
8.375996885551686
 30
0.0000000000000005
 70
     8
  0
VERTEX
  5
298
330
23E
100
AcDbEntity
  8
1
  6
Continuous
 62
   174
420
      165
100
AcDbVertex
100
AcDb2dVertex
 10
129.5631834180781
 20
8.72405269955987
 30
0.0000000000000005
 70
     8
  0
VERTEX
  5
299
330
23E
100
AcDbEntity
  8
1
  6
Continuous
 62
   174
420
      165
100
AcDbVertex
100
AcDb2dVertex
 10
129.7317447848592
 20
9.073977029183524
 30
0.0000000000000006
 70
     8
  0
VERTEX
  5
29A
330
23E
100
AcDbEntity
  8
1
  6
Continuous
 62
   174
420
      165
100
AcDbVertex
100
AcDb2dVertex
 10
129.8965944914185
 20
9.42568197418681
 30
0.0000000000000006
 70
     8
  0
VERTEX
  5
29B
330
23E
100
AcDbEntity
  8
1
  6
Continuous
 62
   174
420
      165
100
AcDbVertex
100
AcDb2dVertex
 10
130.0578332526742
 20
9.77907963433389
 30
0.0000000000000006
 70
     8
  0
VERTEX
  5
29C
330
23E
100
AcDbEntity
  8
1
  6
Continuous
 62
   174
420
      165
100
AcDbVertex
100
AcDb2dVertex
 10
130.2155617835441
 20
10.13408210938892
 30
0.0000000000000006
 70
     8
  0
VERTEX
  5
29D
330
23E
100
AcDbEntity
  8
1
  6
Continuous
 62
   174
420
      165
100
AcDbVertex
100
AcDb2dVertex
 10
130.3698807989463
 20
10.49060149911607
 30
0.0000000000000006
 70
     8
  0
VERTEX
  5
29E
330
23E
100
AcDbEntity
  8
1
  6
Continuous
 62
   174
420
      165
100
AcDbVertex
100
AcDb2dVertex
 10
130.5208890416468
 20
10.84855307645244
 30
0.0000000000000007
 70
     8
  0
VERTEX
  5
29F
330
23E
100
AcDbEntity
  8
1
  6
Continuous
 62
   174
420
      165
100
AcDbVertex
100
AcDb2dVertex
 10
130.668677365804
 20
11.2078648070269
 30
0.0000000000000007
 70
     8
  0
VERTEX
  5
2A0
330
23E
100
AcDbEntity
  8
1
  6
Continuous
 62
   174
420
      165
100
AcDbVertex
100
AcDb2dVertex
 10
130.8133346534244
 20
11.56846782964129
 30
0.0000000000000007
 70
     8
  0
VERTEX
  5
2A1
330
23E
100
AcDbEntity
  8
1
  6
Continuous
 62
   174
420
      165
100
AcDbVertex
100
AcDb2dVertex
 10
130.9549497865144
 20
11.93029328309741
 30
0.0000000000000007
 70
     8
  0
VERTEX
  5
2A2
330
23E
100
AcDbEntity
  8
1
  6
Continuous
 62
   174
420
      165
100
AcDbVertex
100
AcDb2dVertex
 10
131.0936116470805
 20
12.2932723061971
 30
0.0000000000000008
 70
     8
  0
VERTEX
  5
2A3
330
23E
100
AcDbEntity
  8
1
  6
Continuous
 62
   174
420
      165
100
AcDbVertex
100
AcDb2dVertex
 10
131.2294091171292
 20
12.65733603774217
 30
0.0000000000000008
 70
     8
  0
VERTEX
  5
2A4
330
23E
100
AcDbEntity
  8
1
  6
Continuous
 62
   174
420
      165
100
AcDbVertex
100
AcDb2dVertex
 10
131.3624310786668
 20
13.02241561653445
 30
0.0000000000000008
 70
     8
  0
VERTEX
  5
2A5
330
23E
100
AcDbEntity
  8
1
  6
Continuous
 62
   174
420
      165
100
AcDbVertex
100
AcDb2dVertex
 10
131.4927664136998
 20
13.38844218137575
 30
0.0000000000000008
 70
     8
  0
VERTEX
  5
2A6
330
23E
100
AcDbEntity
  8
1
  6
Continuous
 62
   174
420
      165
100
AcDbVertex
100
AcDb2dVertex
 10
131.6204958400062
 20
13.75535427639609
 30
0.0000000000000008
 70
     8
  0
VERTEX
  5
2A7
330
23E
100
AcDbEntity
  8
1
  6
Continuous
 62
   174
420
      165
100
AcDbVertex
100
AcDb2dVertex
 10
131.7456674184496
 20
14.12312006703815
 30
0.0000000000000009
 70
     8
  0
VERTEX
  5
2A8
330
23E
100
AcDbEntity
  8
1
  6
Continuous
 62
   174
420
      165
100
AcDbVertex
100
AcDb2dVertex
 10
131.868321045665
 20
14.49171512407283
 30
0.0000000000000009
 70
     8
  0
VERTEX
  5
2A9
330
23E
100
AcDbEntity
  8
1
  6
Continuous
 62
   174
420
      165
100
AcDbVertex
100
AcDb2dVertex
 10
131.9884966182875
 20
14.86111501827102
 30
0.0000000000000009
 70
     8
  0
VERTEX
  5
2AA
330
23E
100
AcDbEntity
  8
1
  6
Continuous
 62
   174
420
      165
100
AcDbVertex
100
AcDb2dVertex
 10
132.1062340329523
 20
15.2312953204036
 30
0.0000000000000009
 70
     8
  0
VERTEX
  5
2AB
330
23E
100
AcDbEntity
  8
1
  6
Continuous
 62
   174
420
      165
100
AcDbVertex
100
AcDb2dVertex
 10
132.2215731862944
 20
15.60223160124146
 30
0.000000000000001
 70
     8
  0
VERTEX
  5
2AC
330
23E
100
AcDbEntity
  8
1
  6
Continuous
 62
   174
420
      165
100
AcDbVertex
100
AcDb2dVertex
 10
132.334553974949
 20
15.97389943155549
 30
0.000000000000001
 70
     8
  0
VERTEX
  5
2AD
330
23E
100
AcDbEntity
  8
1
  6
Continuous
 62
   174
420
      165
100
AcDbVertex
100
AcDb2dVertex
 10
132.4452162955509
 20
16.34627438211656
 30
0.000000000000001
 70
     8
  0
VERTEX
  5
2AE
330
23E
100
AcDbEntity
  8
1
  6
Continuous
 62
   174
420
      165
100
AcDbVertex
100
AcDb2dVertex
 10
132.553601193338
 20
16.71933126256445
 30
0.000000000000001
 70
     8
  0
VERTEX
  5
2AF
330
23E
100
AcDbEntity
  8
1
  6
Continuous
 62
   174
420
      165
100
AcDbVertex
100
AcDb2dVertex
 10
132.6597543079579
 20
17.09304183801446
 30
0.000000000000001
 70
     8
  0
VERTEX
  5
2B0
330
23E
100
AcDbEntity
  8
1
  6
Continuous
 62
   174
420
      165
100
AcDbVertex
100
AcDb2dVertex
 10
132.7637224276608
 20
17.46737711245076
 30
0.0000000000000011
 70
     8
  0
VERTEX
  5
2B1
330
23E
100
AcDbEntity
  8
1
  6
Continuous
 62
   174
420
      165
100
AcDbVertex
100
AcDb2dVertex
 10
132.8655523406969
 20
17.84230808985753
 30
0.0000000000000011
 70
     8
  0
VERTEX
  5
2B2
330
23E
100
AcDbEntity
  8
1
  6
Continuous
 62
   174
420
      165
100
AcDbVertex
100
AcDb2dVertex
 10
132.9652908353164
 20
18.21780577421895
 30
0.0000000000000011
 70
     8
  0
VERTEX
  5
2B3
330
23E
100
AcDbEntity
  8
1
  6
Continuous
 62
   174
420
      165
100
AcDbVertex
100
AcDb2dVertex
 10
133.0629846997695
 20
18.5938411695192
 30
0.0000000000000011
 70
     8
  0
VERTEX
  5
2B4
330
23E
100
AcDbEntity
  8
1
  6
Continuous
 62
   174
420
      165
100
AcDbVertex
100
AcDb2dVertex
 10
133.1586807223065
 20
18.97038527974246
 30
0.0000000000000012
 70
     8
  0
VERTEX
  5
2B5
330
23E
100
AcDbEntity
  8
1
  6
Continuous
 62
   174
420
      165
100
AcDbVertex
100
AcDb2dVertex
 10
133.2524256911773
 20
19.3474091088729
 30
0.0000000000000012
 70
     8
  0
VERTEX
  5
2B6
330
23E
100
AcDbEntity
  8
1
  6
Continuous
 62
   174
420
      165
100
AcDbVertex
100
AcDb2dVertex
 10
133.4342130250292
 20
20.10280393140256
 30
0.0000000000000012
 70
     8
  0
VERTEX
  5
2B7
330
23E
100
AcDbEntity
  8
1
  6
Continuous
 62
   174
420
      165
100
AcDbVertex
100
AcDb2dVertex
 10
133.6085380278624
 20
20.85991362703432
 30
0.0000000000000013
 70
     8
  0
VERTEX
  5
2B8
330
23E
100
AcDbEntity
  8
1
  6
Continuous
 62
   174
420
      165
100
AcDbVertex
100
AcDb2dVertex
 10
133.7755554303216
 20
21.61865017730479
 30
0.0000000000000013
 70
     8
  0
VERTEX
  5
2B9
330
23E
100
AcDbEntity
  8
1
  6
Continuous
 62
   174
420
      165
100
AcDbVertex
100
AcDb2dVertex
 10
133.9354199630511
 20
22.37892556375061
 30
0.0000000000000014
 70
     8
  0
VERTEX
  5
2BA
330
23E
100
AcDbEntity
  8
1
  6
Continuous
 62
   174
420
      165
100
AcDbVertex
100
AcDb2dVertex
 10
134.0882863566956
 20
23.1406517679084
 30
0.0000000000000014
 70
     8
  0
VERTEX
  5
2BB
330
23E
100
AcDbEntity
  8
1
  6
Continuous
 62
   174
420
      165
100
AcDbVertex
100
AcDb2dVertex
 10
134.2343093418995
 20
23.9037407713148
 30
0.0000000000000015
 70
     8
  0
VERTEX
  5
2BC
330
23E
100
AcDbEntity
  8
1
  6
Continuous
 62
   174
420
      165
100
AcDbVertex
100
AcDb2dVertex
 10
134.3736436493073
 20
24.66810455550645
 30
0.0000000000000015
 70
     8
  0
VERTEX
  5
2BD
330
23E
100
AcDbEntity
  8
1
  6
Continuous
 62
   174
420
      165
100
AcDbVertex
100
AcDb2dVertex
 10
134.5064440095636
 20
25.43365510201996
 30
0.0000000000000016
 70
     8
  0
VERTEX
  5
2BE
330
23E
100
AcDbEntity
  8
1
  6
Continuous
 62
   174
420
      165
100
AcDbVertex
100
AcDb2dVertex
 10
134.5704419891816
 20
25.81684809326067
 30
0.0000000000000016
 70
     8
  0
VERTEX
  5
2BF
330
23E
100
AcDbEntity
  8
1
  6
Continuous
 62
   174
420
      165
100
AcDbVertex
100
AcDb2dVertex
 10
134.6328625640751
 20
26.20030589545646
 30
0.0000000000000016
 70
     8
  0
VERTEX
  5
2C0
330
23E
100
AcDbEntity
  8
1
  6
Continuous
 62
   174
420
      165
100
AcDbVertex
100
AcDb2dVertex
 10
134.6937231336465
 20
26.58401863359775
 30
0.0000000000000016
 70
     8
  0
VERTEX
  5
2C1
330
23E
100
AcDbEntity
  8
1
  6
Continuous
 62
   174
420
      165
100
AcDbVertex
100
AcDb2dVertex
 10
134.753041097298
 20
26.96797643267499
 30
0.0000000000000017
 70
     8
  0
VERTEX
  5
2C2
330
23E
100
AcDbEntity
  8
1
  6
Continuous
 62
   174
420
      165
100
AcDbVertex
100
AcDb2dVertex
 10
134.8108338544319
 20
27.35216941767862
 30
0.0000000000000017
 70
     8
  0
VERTEX
  5
2C3
330
23E
100
AcDbEntity
  8
1
  6
Continuous
 62
   174
420
      165
100
AcDbVertex
100
AcDb2dVertex
 10
134.8671188044506
 20
27.73658771359908
 30
0.0000000000000017
 70
     8
  0
VERTEX
  5
2C4
330
23E
100
AcDbEntity
  8
1
  6
Continuous
 62
   174
420
      165
100
AcDbVertex
100
AcDb2dVertex
 10
134.9219133467563
 20
28.12122144542681
 30
0.0000000000000017
 70
     8
  0
VERTEX
  5
2C5
330
23E
100
AcDbEntity
  8
1
  6
Continuous
 62
   174
420
      165
100
AcDbVertex
100
AcDb2dVertex
 10
134.9752348807513
 20
28.50606073815224
 30
0.0000000000000017
 70
     8
  0
VERTEX
  5
2C6
330
23E
100
AcDbEntity
  8
1
  6
Continuous
 62
   174
420
      165
100
AcDbVertex
100
AcDb2dVertex
 10
135.0270997371582
 20
28.89109623529316
 30
0.0000000000000018
 70
     8
  0
VERTEX
  5
2C7
330
23E
100
AcDbEntity
  8
1
  6
Continuous
 62
   174
420
      165
100
AcDbVertex
100
AcDb2dVertex
 10
135.0775199719802
 20
29.2763206544767
 30
0.0000000000000018
 70
     8
  0
VERTEX
  5
2C8
330
23E
100
AcDbEntity
  8
1
  6
Continuous
 62
   174
420
      165
100
AcDbVertex
100
AcDb2dVertex
 10
135.1265065725408
 20
29.6617272318573
 30
0.0000000000000018
 70
     8
  0
VERTEX
  5
2C9
330
23E
100
AcDbEntity
  8
1
  6
Continuous
 62
   174
420
      165
100
AcDbVertex
100
AcDb2dVertex
 10
135.1740705261637
 20
30.04730920358944
 30
0.0000000000000018
 70
     8
  0
VERTEX
  5
2CA
330
23E
100
AcDbEntity
  8
1
  6
Continuous
 62
   174
420
      165
100
AcDbVertex
100
AcDb2dVertex
 10
135.2202228201722
 20
30.43305980582758
 30
0.0000000000000019
 70
     8
  0
VERTEX
  5
2CB
330
23E
100
AcDbEntity
  8
1
  6
Continuous
 62
   174
420
      165
100
AcDbVertex
100
AcDb2dVertex
 10
135.26497444189
 20
30.81897227472616
 30
0.0000000000000019
 70
     8
  0
VERTEX
  5
2CC
330
23E
100
AcDbEntity
  8
1
  6
Continuous
 62
   174
420
      165
100
AcDbVertex
100
AcDb2dVertex
 10
135.3083363786404
 20
31.20503984643966
 30
0.0000000000000019
 70
     8
  0
VERTEX
  5
2CD
330
23E
100
AcDbEntity
  8
1
  6
Continuous
 62
   174
420
      165
100
AcDbVertex
100
AcDb2dVertex
 10
135.3503196177472
 20
31.59125575712252
 30
0.0000000000000019
 70
     8
  0
VERTEX
  5
2CE
330
23E
100
AcDbEntity
  8
1
  6
Continuous
 62
   174
420
      165
100
AcDbVertex
100
AcDb2dVertex
 10
135.3909343618059
 20
31.97761361745404
 30
0.000000000000002
 70
     8
  0
VERTEX
  5
2CF
330
23E
100
AcDbEntity
  8
1
  6
Continuous
 62
   174
420
      165
100
AcDbVertex
100
AcDb2dVertex
 10
135.4301876745012
 20
32.36410853621266
 30
0.000000000000002
 70
     8
  0
VERTEX
  5
2D0
330
23E
100
AcDbEntity
  8
1
  6
Continuous
 62
   174
420
      165
100
AcDbVertex
100
AcDb2dVertex
 10
135.4680858347899
 20
32.7507359967017
 30
0.000000000000002
 70
     8
  0
VERTEX
  5
2D1
330
23E
100
AcDbEntity
  8
1
  6
Continuous
 62
   174
420
      165
100
AcDbVertex
100
AcDb2dVertex
 10
135.5046351216288
 20
33.13749148222441
 30
0.000000000000002
 70
     8
  0
VERTEX
  5
2D2
330
23E
100
AcDbEntity
  8
1
  6
Continuous
 62
   174
420
      165
100
AcDbVertex
100
AcDb2dVertex
 10
135.5398418139744
 20
33.52437047608409
 30
0.0000000000000021
 70
     8
  0
VERTEX
  5
2D3
330
23E
100
AcDbEntity
  8
1
  6
Continuous
 62
   174
420
      165
100
AcDbVertex
100
AcDb2dVertex
 10
135.5737121907839
 20
33.91136846158403
 30
0.0000000000000021
 70
     8
  0
VERTEX
  5
2D4
330
23E
100
AcDbEntity
  8
1
  6
Continuous
 62
   174
420
      165
100
AcDbVertex
100
AcDb2dVertex
 10
135.6062525310139
 20
34.29848092202752
 30
0.0000000000000021
 70
     8
  0
VERTEX
  5
2D5
330
23E
100
AcDbEntity
  8
1
  6
Continuous
 62
   174
420
      165
100
AcDbVertex
100
AcDb2dVertex
 10
135.6374691136212
 20
34.68570334071781
 30
0.0000000000000021
 70
     8
  0
VERTEX
  5
2D6
330
23E
100
AcDbEntity
  8
1
  6
Continuous
 62
   174
420
      165
100
AcDbVertex
100
AcDb2dVertex
 10
135.6673678070882
 20
35.07303116930601
 30
0.0000000000000021
 70
     8
  0
VERTEX
  5
2D7
330
23E
100
AcDbEntity
  8
1
  6
Continuous
 62
   174
420
      165
100
AcDbVertex
100
AcDb2dVertex
 10
135.6959528379998
 20
35.46045973283429
 30
0.0000000000000022
 70
     8
  0
VERTEX
  5
2D8
330
23E
100
AcDbEntity
  8
1
  6
Continuous
 62
   174
420
      165
100
AcDbVertex
100
AcDb2dVertex
 10
135.7232280224664
 20
35.84798432469264
 30
0.0000000000000022
 70
     8
  0
VERTEX
  5
2D9
330
23E
100
AcDbEntity
  8
1
  6
Continuous
 62
   174
420
      165
100
AcDbVertex
100
AcDb2dVertex
 10
135.7491971765986
 20
36.23560023827105
 30
0.0000000000000022
 70
     8
  0
VERTEX
  5
2DA
330
23E
100
AcDbEntity
  8
1
  6
Continuous
 62
   174
420
      165
100
AcDbVertex
100
AcDb2dVertex
 10
135.7738641165069
 20
36.62330276695949
 30
0.0000000000000022
 70
     8
  0
VERTEX
  5
2DB
330
23E
100
AcDbEntity
  8
1
  6
Continuous
 62
   174
420
      165
100
AcDbVertex
100
AcDb2dVertex
 10
135.7972326583018
 20
37.01108720414796
 30
0.0000000000000023
 70
     8
  0
VERTEX
  5
2DC
330
23E
100
AcDbEntity
  8
1
  6
Continuous
 62
   174
420
      165
100
AcDbVertex
100
AcDb2dVertex
 10
135.8193066180937
 20
37.39894884322641
 30
0.0000000000000023
 70
     8
  0
VERTEX
  5
2DD
330
23E
100
AcDbEntity
  8
1
  6
Continuous
 62
   174
420
      165
100
AcDbVertex
100
AcDb2dVertex
 10
135.8400898119932
 20
37.78688297758485
 30
0.0000000000000023
 70
     8
  0
VERTEX
  5
2DE
330
23E
100
AcDbEntity
  8
1
  6
Continuous
 62
   174
420
      165
100
AcDbVertex
100
AcDb2dVertex
 10
135.8777987940975
 20
38.56295020486027
 30
0.0000000000000024
 70
     8
  0
VERTEX
  5
2DF
330
23E
100
AcDbEntity
  8
1
  6
Continuous
 62
   174
420
      165
100
AcDbVertex
100
AcDb2dVertex
 10
135.9103882712021
 20
39.33925272888745
 30
0.0000000000000024
 70
     8
  0
VERTEX
  5
2E0
330
23E
100
AcDbEntity
  8
1
  6
Continuous
 62
   174
420
      165
100
AcDbVertex
100
AcDb2dVertex
 10
135.9378865374347
 20
40.11575469173831
 30
0.0000000000000025
 70
     8
  0
VERTEX
  5
2E1
330
23E
100
AcDbEntity
  8
1
  6
Continuous
 62
   174
420
      165
100
AcDbVertex
100
AcDb2dVertex
 10
135.9603218869236
 20
40.89242023548475
 30
0.0000000000000025
 70
     8
  0
VERTEX
  5
2E2
330
23E
100
AcDbEntity
  8
1
  6
Continuous
 62
   174
420
      165
100
AcDbVertex
100
AcDb2dVertex
 10
135.9777226137966
 20
41.66921350219866
 30
0.0000000000000026
 70
     8
  0
VERTEX
  5
2E3
330
23E
100
AcDbEntity
  8
1
  6
Continuous
 62
   174
420
      165
100
AcDbVertex
100
AcDb2dVertex
 10
135.9901170121817
 20
42.44609863395198
 30
0.0000000000000026
 70
     8
  0
VERTEX
  5
2E4
330
23E
100
AcDbEntity
  8
1
  6
Continuous
 62
   174
420
      165
100
AcDbVertex
100
AcDb2dVertex
 10
135.9975333762068
 20
43.22303977281657
 30
0.0000000000000026
 70
     8
  0
VERTEX
  5
2E5
330
23E
100
AcDbEntity
  8
1
  6
Continuous
 62
   174
420
      165
100
AcDbVertex
100
AcDb2dVertex
 10
136.0
 20
44.0000010608644
 30
0.0000000000000027
 70
     8
  0
SEQEND
  5
23F
330
23E
100
AcDbEntity
  8
1
  6
Continuous
 62
   174
420
      165
  0
POLYLINE
  5
2E8
102
{ACAD_XDICTIONARY
360
2E6
102
}
330
1F
100
AcDbEntity
  8
1
  6
Continuous
 62
   174
420
      165
100
AcDb2dPolyline
 66
     1
 10
0.0
 20
0.0
 30
32.00000000003978
 70
   132
 75
     6
  0
VERTEX
  5
2EA
330
2E8
100
AcDbEntity
  8
1
  6
Continuous
 62
   174
420
      165
100
AcDbVertex
100
AcDb2dVertex
 10
96.99999999999997
 20
64.00000000000001
 30
-0.0000000000001484
 70
    16
  0
VERTEX
  5
2EB
330
2E8
100
AcDbEntity
  8
1
  6
Continuous
 62
   174
420
      165
100
AcDbVertex
100
AcDb2dVertex
 10
93.99982366199606
 20
63.99999844628356
 30
-0.0000000000001484
 70
    16
  0
VERTEX
  5
2EC
330
2E8
100
AcDbEntity
  8
1
  6
Continuous
 62
   174
420
      165
100
AcDbVertex
100
AcDb2dVertex
 10
87.99933317503351
 20
63.86867123878278
 30
-0.0000000000001481
 70
    16
  0
VERTEX
  5
2ED
330
2E8
100
AcDbEntity
  8
1
  6
Continuous
 62
   174
420
      165
100
AcDbVertex
100
AcDb2dVertex
 10
79.0165037619341
 20
63.27093452852871
 30
-0.0000000000001467
 70
    16
  0
VERTEX
  5
2EE
330
2E8
100
AcDbEntity
  8
1
  6
Continuous
 62
   174
420
      165
100
AcDbVertex
100
AcDb2dVertex
 10
70.06951732098804
 20
62.26503689829232
 30
-0.0000000000001444
 70
    16
  0
VERTEX
  5
2EF
330
2E8
100
AcDbEntity
  8
1
  6
Continuous
 62
   174
420
      165
100
AcDbVertex
100
AcDb2dVertex
 10
61.18219900293634
 20
60.8274971904878
 30
-0.000000000000141
 70
    16
  0
VERTEX
  5
2F0
330
2E8
100
AcDbEntity
  8
1
  6
Continuous
 62
   174
420
      165
100
AcDbVertex
100
AcDb2dVertex
 10
52.37889782737859
 20
58.93356297193409
 30
-0.0000000000001367
 70
    16
  0
VERTEX
  5
2F1
330
2E8
100
AcDbEntity
  8
1
  6
Continuous
 62
   174
420
      165
100
AcDbVertex
100
AcDb2dVertex
 10
43.70017484249438
 20
56.53516869499825
 30
-0.0000000000001311
 70
    16
  0
VERTEX
  5
2F2
330
2E8
100
AcDbEntity
  8
1
  6
Continuous
 62
   174
420
      165
100
AcDbVertex
100
AcDb2dVertex
 10
36.61116404739488
 20
54.07009936222823
 30
-0.0000000000001254
 70
    16
  0
VERTEX
  5
2F3
330
2E8
100
AcDbEntity
  8
1
  6
Continuous
 62
   174
420
      165
100
AcDbVertex
100
AcDb2dVertex
 10
31.06565914344079
 20
51.7743026552606
 30
-0.0000000000001201
 70
    16
  0
VERTEX
  5
2F4
330
2E8
100
AcDbEntity
  8
1
  6
Continuous
 62
   174
420
      165
100
AcDbVertex
100
AcDb2dVertex
 10
28.34480006248008
 20
50.50871203304706
 30
-0.0000000000001171
 70
    16
  0
VERTEX
  5
2F5
330
2E8
100
AcDbEntity
  8
1
  6
Continuous
 62
   174
420
      165
100
AcDbVertex
100
AcDb2dVertex
 10
26.99999999999998
 20
49.84389733415171
 30
-0.0000000000001156
 70
    16
  0
VERTEX
  5
2F6
330
2E8
100
AcDbEntity
  8
1
  6
Continuous
 62
   174
420
      165
100
AcDbVertex
100
AcDb2dVertex
 10
96.99999999999997
 20
64.00000000000001
 30
-0.0000000000001484
 70
     8
  0
VERTEX
  5
2F7
330
2E8
100
AcDbEntity
  8
1
  6
Continuous
 62
   174
420
      165
100
AcDbVertex
100
AcDb2dVertex
 10
95.8749366067646
 20
63.99691930381348
 30
-0.0000000000001484
 70
     8
  0
VERTEX
  5
2F8
330
2E8
100
AcDbEntity
  8
1
  6
Continuous
 62
   174
420
      165
100
AcDbVertex
100
AcDb2dVertex
 10
94.74990253440288
 20
63.9876695607511
 30
-0.0000000000001484
 70
     8
  0
VERTEX
  5
2F9
330
2E8
100
AcDbEntity
  8
1
  6
Continuous
 62
   174
420
      165
100
AcDbVertex
100
AcDb2dVertex
 10
93.6249335636769
 20
63.97223754112774
 30
-0.0000000000001483
 70
     8
  0
VERTEX
  5
2FA
330
2E8
100
AcDbEntity
  8
1
  6
Continuous
 62
   174
420
      165
100
AcDbVertex
100
AcDb2dVertex
 10
92.50006547534878
 20
63.95061001525823
 30
-0.0000000000001483
 70
     8
  0
VERTEX
  5
2FB
330
2E8
100
AcDbEntity
  8
1
  6
Continuous
 62
   174
420
      165
100
AcDbVertex
100
AcDb2dVertex
 10
91.37533405018067
 20
63.92277375345742
 30
-0.0000000000001482
 70
     8
  0
VERTEX
  5
2FC
330
2E8
100
AcDbEntity
  8
1
  6
Continuous
 62
   174
420
      165
100
AcDbVertex
100
AcDb2dVertex
 10
90.2507750689347
 20
63.88871552604016
 30
-0.0000000000001481
 70
     8
  0
VERTEX
  5
2FD
330
2E8
100
AcDbEntity
  8
1
  6
Continuous
 62
   174
420
      165
100
AcDbVertex
100
AcDb2dVertex
 10
89.12642431237299
 20
63.84842210332129
 30
-0.0000000000001481
 70
     8
  0
VERTEX
  5
2FE
330
2E8
100
AcDbEntity
  8
1
  6
Continuous
 62
   174
420
      165
100
AcDbVertex
100
AcDb2dVertex
 10
88.00231756125763
 20
63.80188025561565
 30
-0.0000000000001479
 70
     8
  0
VERTEX
  5
2FF
330
2E8
100
AcDbEntity
  8
1
  6
Continuous
 62
   174
420
      165
100
AcDbVertex
100
AcDb2dVertex
 10
86.8784904716452
 20
63.74907654444178
 30
-0.0000000000001478
 70
     8
  0
VERTEX
  5
300
330
2E8
100
AcDbEntity
  8
1
  6
Continuous
 62
   174
420
      165
100
AcDbVertex
100
AcDb2dVertex
 10
85.75497820077027
 20
63.68999669613316
 30
-0.0000000000001477
 70
     8
  0
VERTEX
  5
301
330
2E8
100
AcDbEntity
  8
1
  6
Continuous
 62
   174
420
      165
100
AcDbVertex
100
AcDb2dVertex
 10
84.63181578116166
 20
63.62462622822693
 30
-0.0000000000001475
 70
     8
  0
VERTEX
  5
302
330
2E8
100
AcDbEntity
  8
1
  6
Continuous
 62
   174
420
      165
100
AcDbVertex
100
AcDb2dVertex
 10
83.50903824534834
 20
63.55295065826022
 30
-0.0000000000001474
 70
     8
  0
VERTEX
  5
303
330
2E8
100
AcDbEntity
  8
1
  6
Continuous
 62
   174
420
      165
100
AcDbVertex
100
AcDb2dVertex
 10
82.38668062585924
 20
63.47495550377018
 30
-0.0000000000001472
 70
     8
  0
VERTEX
  5
304
330
2E8
100
AcDbEntity
  8
1
  6
Continuous
 62
   174
420
      165
100
AcDbVertex
100
AcDb2dVertex
 10
81.26477795522325
 20
63.39062628229397
 30
-0.000000000000147
 70
     8
  0
VERTEX
  5
305
330
2E8
100
AcDbEntity
  8
1
  6
Continuous
 62
   174
420
      165
100
AcDbVertex
100
AcDb2dVertex
 10
80.1433652659693
 20
63.29994851136875
 30
-0.0000000000001468
 70
     8
  0
VERTEX
  5
306
330
2E8
100
AcDbEntity
  8
1
  6
Continuous
 62
   174
420
      165
100
AcDbVertex
100
AcDb2dVertex
 10
79.02247759062632
 20
63.20290770853165
 30
-0.0000000000001466
 70
     8
  0
VERTEX
  5
307
330
2E8
100
AcDbEntity
  8
1
  6
Continuous
 62
   174
420
      165
100
AcDbVertex
100
AcDb2dVertex
 10
77.90215187855136
 20
63.09948416145767
 30
-0.0000000000001463
 70
     8
  0
VERTEX
  5
308
330
2E8
100
AcDbEntity
  8
1
  6
Continuous
 62
   174
420
      165
100
AcDbVertex
100
AcDb2dVertex
 10
76.78243274641383
 20
62.98963723837304
 30
-0.0000000000001461
 70
     8
  0
VERTEX
  5
309
330
2E8
100
AcDbEntity
  8
1
  6
Continuous
 62
   174
420
      165
100
AcDbVertex
100
AcDb2dVertex
 10
75.66336672771129
 20
62.87332107764185
 30
-0.0000000000001458
 70
     8
  0
VERTEX
  5
30A
330
2E8
100
AcDbEntity
  8
1
  6
Continuous
 62
   174
420
      165
100
AcDbVertex
100
AcDb2dVertex
 10
74.54500035594123
 20
62.75048981762823
 30
-0.0000000000001455
 70
     8
  0
VERTEX
  5
30B
330
2E8
100
AcDbEntity
  8
1
  6
Continuous
 62
   174
420
      165
100
AcDbVertex
100
AcDb2dVertex
 10
73.42738016460126
 20
62.62109759669623
 30
-0.0000000000001452
 70
     8
  0
VERTEX
  5
30C
330
2E8
100
AcDbEntity
  8
1
  6
Continuous
 62
   174
420
      165
100
AcDbVertex
100
AcDb2dVertex
 10
72.3105526871889
 20
62.48509855320997
 30
-0.0000000000001449
 70
     8
  0
VERTEX
  5
30D
330
2E8
100
AcDbEntity
  8
1
  6
Continuous
 62
   174
420
      165
100
AcDbVertex
100
AcDb2dVertex
 10
71.19456445720166
 20
62.34244682553352
 30
-0.0000000000001446
 70
     8
  0
VERTEX
  5
30E
330
2E8
100
AcDbEntity
  8
1
  6
Continuous
 62
   174
420
      165
100
AcDbVertex
100
AcDb2dVertex
 10
70.07946200813709
 20
62.19309655203098
 30
-0.0000000000001442
 70
     8
  0
VERTEX
  5
30F
330
2E8
100
AcDbEntity
  8
1
  6
Continuous
 62
   174
420
      165
100
AcDbVertex
100
AcDb2dVertex
 10
68.96529204402302
 20
62.03700145723973
 30
-0.0000000000001439
 70
     8
  0
VERTEX
  5
310
330
2E8
100
AcDbEntity
  8
1
  6
Continuous
 62
   174
420
      165
100
AcDbVertex
100
AcDb2dVertex
 10
67.85210195100805
 20
61.87411361039045
 30
-0.0000000000001435
 70
     8
  0
VERTEX
  5
311
330
2E8
100
AcDbEntity
  8
1
  6
Continuous
 62
   174
420
      165
100
AcDbVertex
100
AcDb2dVertex
 10
66.7399392857711
 20
61.70438466688702
 30
-0.0000000000001431
 70
     8
  0
VERTEX
  5
312
330
2E8
100
AcDbEntity
  8
1
  6
Continuous
 62
   174
420
      165
100
AcDbVertex
100
AcDb2dVertex
 10
65.62885160499113
 20
61.52776628213344
 30
-0.0000000000001427
 70
     8
  0
VERTEX
  5
313
330
2E8
100
AcDbEntity
  8
1
  6
Continuous
 62
   174
420
      165
100
AcDbVertex
100
AcDb2dVertex
 10
64.51888646534698
 20
61.34421011153363
 30
-0.0000000000001422
 70
     8
  0
VERTEX
  5
314
330
2E8
100
AcDbEntity
  8
1
  6
Continuous
 62
   174
420
      165
100
AcDbVertex
100
AcDb2dVertex
 10
63.41009142351758
 20
61.15366781049154
 30
-0.0000000000001418
 70
     8
  0
VERTEX
  5
315
330
2E8
100
AcDbEntity
  8
1
  6
Continuous
 62
   174
420
      165
100
AcDbVertex
100
AcDb2dVertex
 10
62.30251403618184
 20
60.95609103441111
 30
-0.0000000000001413
 70
     8
  0
VERTEX
  5
316
330
2E8
100
AcDbEntity
  8
1
  6
Continuous
 62
   174
420
      165
100
AcDbVertex
100
AcDb2dVertex
 10
61.19620186001866
 20
60.75143143869626
 30
-0.0000000000001409
 70
     8
  0
VERTEX
  5
317
330
2E8
100
AcDbEntity
  8
1
  6
Continuous
 62
   174
420
      165
100
AcDbVertex
100
AcDb2dVertex
 10
60.09120772906002
 20
60.53963308984653
 30
-0.0000000000001404
 70
     8
  0
VERTEX
  5
318
330
2E8
100
AcDbEntity
  8
1
  6
Continuous
 62
   174
420
      165
100
AcDbVertex
100
AcDb2dVertex
 10
58.98760558675006
 20
60.32060969874362
 30
-0.0000000000001399
 70
     8
  0
VERTEX
  5
319
330
2E8
100
AcDbEntity
  8
1
  6
Continuous
 62
   174
420
      165
100
AcDbVertex
100
AcDb2dVertex
 10
57.88547465388603
 20
60.09426738736481
 30
-0.0000000000001393
 70
     8
  0
VERTEX
  5
31A
330
2E8
100
AcDbEntity
  8
1
  6
Continuous
 62
   174
420
      165
100
AcDbVertex
100
AcDb2dVertex
 10
56.78489415126514
 20
59.86051227768738
 30
-0.0000000000001388
 70
     8
  0
VERTEX
  5
31B
330
2E8
100
AcDbEntity
  8
1
  6
Continuous
 62
   174
420
      165
100
AcDbVertex
100
AcDb2dVertex
 10
55.68594329968461
 20
59.61925049168861
 30
-0.0000000000001382
 70
     8
  0
VERTEX
  5
31C
330
2E8
100
AcDbEntity
  8
1
  6
Continuous
 62
   174
420
      165
100
AcDbVertex
100
AcDb2dVertex
 10
54.58870131994168
 20
59.37038815134579
 30
-0.0000000000001377
 70
     8
  0
VERTEX
  5
31D
330
2E8
100
AcDbEntity
  8
1
  6
Continuous
 62
   174
420
      165
100
AcDbVertex
100
AcDb2dVertex
 10
53.49324743283358
 20
59.11383137863618
 30
-0.0000000000001371
 70
     8
  0
VERTEX
  5
31E
330
2E8
100
AcDbEntity
  8
1
  6
Continuous
 62
   174
420
      165
100
AcDbVertex
100
AcDb2dVertex
 10
52.39966085915753
 20
58.84948629553708
 30
-0.0000000000001365
 70
     8
  0
VERTEX
  5
31F
330
2E8
100
AcDbEntity
  8
1
  6
Continuous
 62
   174
420
      165
100
AcDbVertex
100
AcDb2dVertex
 10
51.30802302374457
 20
58.57725669221703
 30
-0.0000000000001358
 70
     8
  0
VERTEX
  5
320
330
2E8
100
AcDbEntity
  8
1
  6
Continuous
 62
   174
420
      165
100
AcDbVertex
100
AcDb2dVertex
 10
50.21842416756106
 20
58.29703703160975
 30
-0.0000000000001352
 70
     8
  0
VERTEX
  5
321
330
2E8
100
AcDbEntity
  8
1
  6
Continuous
 62
   174
420
      165
100
AcDbVertex
100
AcDb2dVertex
 10
49.13095673560719
 20
58.00871944484022
 30
-0.0000000000001345
 70
     8
  0
VERTEX
  5
322
330
2E8
100
AcDbEntity
  8
1
  6
Continuous
 62
   174
420
      165
100
AcDbVertex
100
AcDb2dVertex
 10
48.04571317288312
 20
57.71219606303345
 30
-0.0000000000001338
 70
     8
  0
VERTEX
  5
323
330
2E8
100
AcDbEntity
  8
1
  6
Continuous
 62
   174
420
      165
100
AcDbVertex
100
AcDb2dVertex
 10
46.96278592438905
 20
57.40735901731441
 30
-0.0000000000001331
 70
     8
  0
VERTEX
  5
324
330
2E8
100
AcDbEntity
  8
1
  6
Continuous
 62
   174
420
      165
100
AcDbVertex
100
AcDb2dVertex
 10
45.88226743512513
 20
57.09410043880809
 30
-0.0000000000001324
 70
     8
  0
VERTEX
  5
325
330
2E8
100
AcDbEntity
  8
1
  6
Continuous
 62
   174
420
      165
100
AcDbVertex
100
AcDb2dVertex
 10
44.80425015009156
 20
56.77231245863947
 30
-0.0000000000001316
 70
     8
  0
VERTEX
  5
326
330
2E8
100
AcDbEntity
  8
1
  6
Continuous
 62
   174
420
      165
100
AcDbVertex
100
AcDb2dVertex
 10
43.72882651428851
 20
56.44188720793355
 30
-0.0000000000001309
 70
     8
  0
VERTEX
  5
327
330
2E8
100
AcDbEntity
  8
1
  6
Continuous
 62
   174
420
      165
100
AcDbVertex
100
AcDb2dVertex
 10
42.65609944328693
 20
56.10270621732862
 30
-0.0000000000001301
 70
     8
  0
VERTEX
  5
328
330
2E8
100
AcDbEntity
  8
1
  6
Continuous
 62
   174
420
      165
100
AcDbVertex
100
AcDb2dVertex
 10
41.58621373494083
 20
55.75460861551624
 30
-0.0000000000001293
 70
     8
  0
VERTEX
  5
329
330
2E8
100
AcDbEntity
  8
1
  6
Continuous
 62
   174
420
      165
100
AcDbVertex
100
AcDb2dVertex
 10
40.51932465767499
 20
55.39742293070125
 30
-0.0000000000001285
 70
     8
  0
VERTEX
  5
32A
330
2E8
100
AcDbEntity
  8
1
  6
Continuous
 62
   174
420
      165
100
AcDbVertex
100
AcDb2dVertex
 10
39.45558747991418
 20
55.03097769108849
 30
-0.0000000000001276
 70
     8
  0
VERTEX
  5
32B
330
2E8
100
AcDbEntity
  8
1
  6
Continuous
 62
   174
420
      165
100
AcDbVertex
100
AcDb2dVertex
 10
38.39515747008318
 20
54.65510142488285
 30
-0.0000000000001267
 70
     8
  0
VERTEX
  5
32C
330
2E8
100
AcDbEntity
  8
1
  6
Continuous
 62
   174
420
      165
100
AcDbVertex
100
AcDb2dVertex
 10
37.33818989660676
 20
54.26962266028915
 30
-0.0000000000001258
 70
     8
  0
VERTEX
  5
32D
330
2E8
100
AcDbEntity
  8
1
  6
Continuous
 62
   174
420
      165
100
AcDbVertex
100
AcDb2dVertex
 10
36.28484002790972
 20
53.87436992551226
 30
-0.0000000000001249
 70
     8
  0
VERTEX
  5
32E
330
2E8
100
AcDbEntity
  8
1
  6
Continuous
 62
   174
420
      165
100
AcDbVertex
100
AcDb2dVertex
 10
35.23526313241683
 20
53.46917174875703
 30
-0.000000000000124
 70
     8
  0
VERTEX
  5
32F
330
2E8
100
AcDbEntity
  8
1
  6
Continuous
 62
   174
420
      165
100
AcDbVertex
100
AcDb2dVertex
 10
34.71193971521406
 20
53.26278833236174
 30
-0.0000000000001235
 70
     8
  0
VERTEX
  5
330
330
2E8
100
AcDbEntity
  8
1
  6
Continuous
 62
   174
420
      165
100
AcDbVertex
100
AcDb2dVertex
 10
34.18962763222803
 20
53.05384703950998
 30
-0.000000000000123
 70
     8
  0
VERTEX
  5
331
330
2E8
100
AcDbEntity
  8
1
  6
Continuous
 62
   174
420
      165
100
AcDbVertex
100
AcDb2dVertex
 10
33.66835615726823
 20
52.8423192221886
 30
-0.0000000000001225
 70
     8
  0
VERTEX
  5
332
330
2E8
100
AcDbEntity
  8
1
  6
Continuous
 62
   174
420
      165
100
AcDbVertex
100
AcDb2dVertex
 10
33.14815456414414
 20
52.62817623238449
 30
-0.000000000000122
 70
     8
  0
VERTEX
  5
333
330
2E8
100
AcDbEntity
  8
1
  6
Continuous
 62
   174
420
      165
100
AcDbVertex
100
AcDb2dVertex
 10
32.62905212666527
 20
52.4113894220845
 30
-0.0000000000001215
 70
     8
  0
VERTEX
  5
334
330
2E8
100
AcDbEntity
  8
1
  6
Continuous
 62
   174
420
      165
100
AcDbVertex
100
AcDb2dVertex
 10
32.1110781186411
 20
52.19193014327554
 30
-0.000000000000121
 70
     8
  0
VERTEX
  5
335
330
2E8
100
AcDbEntity
  8
1
  6
Continuous
 62
   174
420
      165
100
AcDbVertex
100
AcDb2dVertex
 10
31.59426181388114
 20
51.96976974794447
 30
-0.0000000000001205
 70
     8
  0
VERTEX
  5
336
330
2E8
100
AcDbEntity
  8
1
  6
Continuous
 62
   174
420
      165
100
AcDbVertex
100
AcDb2dVertex
 10
31.07863248619487
 20
51.74487958807816
 30
-0.00000000000012
 70
     8
  0
VERTEX
  5
337
330
2E8
100
AcDbEntity
  8
1
  6
Continuous
 62
   174
420
      165
100
AcDbVertex
100
AcDb2dVertex
 10
30.56421971818771
 20
51.51723071939369
 30
-0.0000000000001195
 70
     8
  0
VERTEX
  5
338
330
2E8
100
AcDbEntity
  8
1
  6
Continuous
 62
   174
420
      165
100
AcDbVertex
100
AcDb2dVertex
 10
30.05105432764866
 20
51.28679301252874
 30
-0.0000000000001189
 70
     8
  0
VERTEX
  5
339
330
2E8
100
AcDbEntity
  8
1
  6
Continuous
 62
   174
420
      165
100
AcDbVertex
100
AcDb2dVertex
 10
29.53916744116264
 20
51.05353604185123
 30
-0.0000000000001184
 70
     8
  0
VERTEX
  5
33A
330
2E8
100
AcDbEntity
  8
1
  6
Continuous
 62
   174
420
      165
100
AcDbVertex
100
AcDb2dVertex
 10
29.02859018531456
 20
50.81742938172906
 30
-0.0000000000001178
 70
     8
  0
VERTEX
  5
33B
330
2E8
100
AcDbEntity
  8
1
  6
Continuous
 62
   174
420
      165
100
AcDbVertex
100
AcDb2dVertex
 10
28.51935368668933
 20
50.57844260653013
 30
-0.0000000000001173
 70
     8
  0
VERTEX
  5
33C
330
2E8
100
AcDbEntity
  8
1
  6
Continuous
 62
   174
420
      165
100
AcDbVertex
100
AcDb2dVertex
 10
28.01148907187188
 20
50.33654529062233
 30
-0.0000000000001167
 70
     8
  0
VERTEX
  5
33D
330
2E8
100
AcDbEntity
  8
1
  6
Continuous
 62
   174
420
      165
100
AcDbVertex
100
AcDb2dVertex
 10
27.50502746744713
 20
50.09170700837355
 30
-0.0000000000001162
 70
     8
  0
VERTEX
  5
33E
330
2E8
100
AcDbEntity
  8
1
  6
Continuous
 62
   174
420
      165
100
AcDbVertex
100
AcDb2dVertex
 10
26.99999999999998
 20
49.8438973341517
 30
-0.0000000000001156
 70
     8
  0
SEQEND
  5
2E9
330
2E8
100
AcDbEntity
  8
1
  6
Continuous
 62
   174
420
      165
  0
VIEWPORT
  5
340
330
1B
100
AcDbEntity
 67
     1
  8
0
100
AcDbViewport
 10
5.5
 20
4.25
 30
0.0
 40
11.0
 41
8.5
 68
     1
 69
     1
 12
5.5
 22
4.25
 13
0.0
 23
0.0
 14
0.5
 24
0.5
 15
0.5
 25
0.5
 16
0.0
 26
0.0
 36
1.0
 17
0.0
 27
0.0
 37
0.0
 42
50.0
 43
0.0
 44
0.0
 45
8.5
 50
0.0
 51
0.0
 72
  1000
 90
    32800
  1

281
     0
 71
     1
 74
     0
110
0.0
120
0.0
130
0.0
111
1.0
121
0.0
131
0.0
112
0.0
122
1.0
132
0.0
 79
     0
146
0.0
170
     0
  0
ENDSEC
  0
SECTION
  2
OBJECTS
  0
DICTIONARY
  5
C
330
0
100
AcDbDictionary
281
     1
  3
ACAD_GROUP
350
D
  3
ACAD_LAYOUT
350
1A
  3
ACAD_MLINESTYLE
350
17
  3
ACAD_PLOTSETTINGS
350
19
  3
ACAD_PLOTSTYLENAME
350
E
  3
ACAD_TABLESTYLE
350
341
  3
ACAD_VISUALSTYLE
350
2A
  0
DICTIONARY
  5
57
330
59
100
AcDbDictionary
280
     1
281
     1
  3
TC_OPTIONAL_DATA
360
58
  0
DICTIONARY
  5
5A
330
5C
100
AcDbDictionary
280
     1
281
     1
  3
TC_OPTIONAL_DATA
360
5B
  0
DICTIONARY
  5
5D
330
5F
100
AcDbDictionary
280
     1
281
     1
  3
TC_OPTIONAL_DATA
360
5E
  0
DICTIONARY
  5
60
330
62
100
AcDbDictionary
280
     1
281
     1
  3
TC_OPTIONAL_DATA
360
61
  0
DICTIONARY
  5
63
330
65
100
AcDbDictionary
280
     1
281
     1
  3
TC_OPTIONAL_DATA
360
64
  0
DICTIONARY
  5
66
330
68
100
AcDbDictionary
280
     1
281
     1
  3
TC_OPTIONAL_DATA
360
67
  0
DICTIONARY
  5
69
330
6B
100
AcDbDictionary
280
     1
281
     1
  3
TC_OPTIONAL_DATA
360
6A
  0
DICTIONARY
  5
6C
330
6E
100
AcDbDictionary
280
     1
281
     1
  3
TC_OPTIONAL_DATA
360
6D
  0
DICTIONARY
  5
6F
330
71
100
AcDbDictionary
280
     1
281
     1
  3
TC_OPTIONAL_DATA
360
70
  0
DICTIONARY
  5
72
330
74
100
AcDbDictionary
280
     1
281
     1
  3
TC_OPTIONAL_DATA
360
73
  0
DICTIONARY
  5
75
330
77
100
AcDbDictionary
280
     1
281
     1
  3
TC_OPTIONAL_DATA
360
76
  0
DICTIONARY
  5
78
330
7A
100
AcDbDictionary
280
     1
281
     1
  3
TC_OPTIONAL_DATA
360
79
  0
DICTIONARY
  5
87
330
89
100
AcDbDictionary
280
     1
281
     1
  3
TC_OPTIONAL_DATA
360
88
  0
DICTIONARY
  5
143
330
145
100
AcDbDictionary
280
     1
281
     1
  3
TC_OPTIONAL_DATA
360
144
  0
DICTIONARY
  5
152
330
154
100
AcDbDictionary
280
     1
281
     1
  3
TC_OPTIONAL_DATA
360
153
  0
DICTIONARY
  5
161
330
163
100
AcDbDictionary
280
     1
281
     1
  3
TC_OPTIONAL_DATA
360
162
  0
DICTIONARY
  5
170
330
172
100
AcDbDictionary
280
     1
281
     1
  3
TC_OPTIONAL_DATA
360
171
  0
DICTIONARY
  5
1AE
330
1B0
100
AcDbDictionary
280
     1
281
     1
  3
TC_OPTIONAL_DATA
360
1AF
  0
DICTIONARY
  5
207
330
209
100
AcDbDictionary
280
     1
281
     1
  3
TC_OPTIONAL_DATA
360
208
  0
DICTIONARY
  5
23C
330
23E
100
AcDbDictionary
280
     1
281
     1
  3
TC_OPTIONAL_DATA
360
23D
  0
DICTIONARY
  5
2E6
330
2E8
100
AcDbDictionary
280
     1
281
     1
  3
TC_OPTIONAL_DATA
360
2E7
  0
DICTIONARY
  5
D
102
{ACAD_REACTORS
330
C
102
}
330
C
100
AcDbDictionary
281
     1
  0
DICTIONARY
  5
1A
102
{ACAD_REACTORS
330
C
102
}
330
C
100
AcDbDictionary
281
     1
  3
_PAPER_SPACE
350
1E
  3
Model
350
22
  3
Paper 1
350
3C
  0
DICTIONARY
  5
17
102
{ACAD_REACTORS
330
C
102
}
330
C
100
AcDbDictionary
281
     1
  3
Standard
350
18
  0
DICTIONARY
  5
19
102
{ACAD_REACTORS
330
C
102
}
330
C
100
AcDbDictionary
281
     1
  0
ACDBDICTIONARYWDFLT
  5
E
102
{ACAD_REACTORS
330
C
102
}
330
C
100
AcDbDictionary
281
     1
  3
Normal
350
F
100
AcDbDictionaryWithDefault
340
F
  0
DICTIONARY
  5
341
102
{ACAD_REACTORS
330
C
102
}
330
C
100
AcDbDictionary
281
     1
  0
DICTIONARY
  5
2A
102
{ACAD_REACTORS
330
C
102
}
330
C
100
AcDbDictionary
281
     1
  3
2dWireframe
350
2F
  3
3D Hidden
350
31
  3
3dWireframe
350
30
  3
Basic
350
32
  3
Brighten
350
36
  3
ColorChange
350
3A
  3
Conceptual
350
34
  3
Dim
350
35
  3
Facepattern
350
39
  3
Flat
350
2B
  3
FlatWithEdges
350
2C
  3
Gouraud
350
2D
  3
GouraudWithEdges
350
2E
  3
Linepattern
350
38
  3
Realistic
350
33
  3
Thicken
350
37
  0
TCOPTIONALDATA
  5
58
102
{ACAD_REACTORS
330
57
102
}
330
57
100
TcOptionalData
 70
     1
 70
    32
 40
-3.0
  0
TCOPTIONALDATA
  5
5B
102
{ACAD_REACTORS
330
5A
102
}
330
5A
100
TcOptionalData
 70
     1
 70
    32
 40
-3.0
  0
TCOPTIONALDATA
  5
5E
102
{ACAD_REACTORS
330
5D
102
}
330
5D
100
TcOptionalData
 70
     1
 70
    32
 40
-3.0
  0
TCOPTIONALDATA
  5
61
102
{ACAD_REACTORS
330
60
102
}
330
60
100
TcOptionalData
 70
     1
 70
    32
 40
-3.0
  0
TCOPTIONALDATA
  5
64
102
{ACAD_REACTORS
330
63
102
}
330
63
100
TcOptionalData
 70
     1
 70
    32
 40
-3.0
  0
TCOPTIONALDATA
  5
67
102
{ACAD_REACTORS
330
66
102
}
330
66
100
TcOptionalData
 70
     1
 70
    32
 40
-3.0
  0
TCOPTIONALDATA
  5
6A
102
{ACAD_REACTORS
330
69
102
}
330
69
100
TcOptionalData
 70
     1
 70
    32
 40
-3.0
  0
TCOPTIONALDATA
  5
6D
102
{ACAD_REACTORS
330
6C
102
}
330
6C
100
TcOptionalData
 70
     1
 70
    32
 40
-3.0
  0
TCOPTIONALDATA
  5
70
102
{ACAD_REACTORS
330
6F
102
}
330
6F
100
TcOptionalData
 70
     1
 70
    32
 40
-3.0
  0
TCOPTIONALDATA
  5
73
102
{ACAD_REACTORS
330
72
102
}
330
72
100
TcOptionalData
 70
     1
 70
    32
 40
-3.0
  0
TCOPTIONALDATA
  5
76
102
{ACAD_REACTORS
330
75
102
}
330
75
100
TcOptionalData
 70
     1
 70
    32
 40
-3.0
  0
TCOPTIONALDATA
  5
79
102
{ACAD_REACTORS
330
78
102
}
330
78
100
TcOptionalData
 70
     1
 70
    32
 40
-3.0
  0
TCOPTIONALDATA
  5
88
102
{ACAD_REACTORS
330
87
102
}
330
87
100
TcOptionalData
 70
     1
 70
    32
 40
-3.0
  0
TCOPTIONALDATA
  5
144
102
{ACAD_REACTORS
330
143
102
}
330
143
100
TcOptionalData
 70
     1
 70
    32
 40
-3.0
  0
TCOPTIONALDATA
  5
153
102
{ACAD_REACTORS
330
152
102
}
330
152
100
TcOptionalData
 70
     1
 70
    32
 40
-3.0
  0
TCOPTIONALDATA
  5
162
102
{ACAD_REACTORS
330
161
102
}
330
161
100
TcOptionalData
 70
     1
 70
    32
 40
-3.0
  0
TCOPTIONALDATA
  5
171
102
{ACAD_REACTORS
330
170
102
}
330
170
100
TcOptionalData
 70
     1
 70
    32
 40
-3.0
  0
TCOPTIONALDATA
  5
1AF
102
{ACAD_REACTORS
330
1AE
102
}
330
1AE
100
TcOptionalData
 70
     1
 70
    32
 40
-3.0
  0
TCOPTIONALDATA
  5
208
102
{ACAD_REACTORS
330
207
102
}
330
207
100
TcOptionalData
 70
     1
 70
    32
 40
-3.0
  0
TCOPTIONALDATA
  5
23D
102
{ACAD_REACTORS
330
23C
102
}
330
23C
100
TcOptionalData
 70
     1
 70
    32
 40
-3.0
  0
TCOPTIONALDATA
  5
2E7
102
{ACAD_REACTORS
330
2E6
102
}
330
2E6
100
TcOptionalData
 70
     1
 70
    32
 40
-3.0
  0
LAYOUT
  5
1E
102
{ACAD_REACTORS
330
1A
102
}
330
1A
100
AcDbPlotSettings
  1

  2
none_device
  4
ISO_C5_(229.00_x_162.00_MM)
  6

 40
0.0
 41
0.0
 42
0.0
 43
0.0
 44
229.0
 45
162.0
 46
0.0
 47
0.0
 48
0.0
 49
0.0
140
0.0
141
0.0
142
1.0
143
1.0
 70
   672
 72
     1
 73
     0
 74
     5
  7

 75
    16
 76
     0
 77
     2
 78
   300
147
1.0
148
0.0
149
0.0
100
AcDbLayout
  1
_PAPER_SPACE
 70
     1
 71
     2
 10
0.0
 20
0.0
 11
0.0
 21
0.0
 12
0.0
 22
0.0
 32
0.0
 14
0.0
 24
0.0
 34
0.0
 15
0.0
 25
0.0
 35
0.0
146
0.0
 13
0.0
 23
0.0
 33
0.0
 16
1.0
 26
0.0
 36
0.0
 17
0.0
 27
1.0
 37
0.0
 76
     0
330
1B
331
340
  0
LAYOUT
  5
22
102
{ACAD_REACTORS
330
1A
102
}
330
1A
100
AcDbPlotSettings
  1

  2
none_device
  4
ANSI_A_(8.50_x_11.00_Inches)
  6

 40
0.0
 41
0.0
 42
0.0
 43
0.0
 44
215.9
 45
279.4
 46
0.0
 47
0.0
 48
0.0
 49
0.0
140
0.0
141
0.0
142
1.0
143
13.27726785105865
 70
  1712
 72
     0
 73
     1
 74
     0
  7

 75
     0
 76
     0
 77
     2
 78
   300
147
0.0753167000333028
148
0.0
149
0.0
100
AcDbLayout
  1
Model
 70
     1
 71
     0
 10
0.0
 20
0.0
 11
11.0
 21
8.5
 12
0.0
 22
0.0
 32
0.0
 14
0.0
 24
0.0
 34
0.0
 15
11.0
 25
8.5
 35
0.0
146
0.0
 13
0.0
 23
0.0
 33
0.0
 16
1.0
 26
0.0
 36
0.0
 17
0.0
 27
1.0
 37
0.0
 76
     0
330
1F
331
29
  0
LAYOUT
  5
3C
102
{ACAD_REACTORS
330
1A
102
}
330
1A
100
AcDbPlotSettings
  1

  2
none_device
  4
ISO_C5_(229.00_x_162.00_MM)
  6

 40
0.0
 41
0.0
 42
0.0
 43
0.0
 44
229.0
 45
162.0
 46
0.0
 47
0.0
 48
0.0
 49
0.0
140
0.0
141
0.0
142
1.0
143
1.0
 70
   672
 72
     1
 73
     0
 74
     5
  7

 75
    16
 76
     0
 77
     2
 78
   300
147
1.0
148
0.0
149
0.0
100
AcDbLayout
  1
Paper 1
 70
     1
 71
     1
 10
0.0
 20
0.0
 11
0.0
 21
0.0
 12
0.0
 22
0.0
 32
0.0
 14
0.0
 24
0.0
 34
0.0
 15
0.0
 25
0.0
 35
0.0
146
0.0
 13
0.0
 23
0.0
 33
0.0
 16
1.0
 26
0.0
 36
0.0
 17
0.0
 27
1.0
 37
0.0
 76
     0
330
3B
331
33F
  0
MLINESTYLE
  5
18
102
{ACAD_REACTORS
330
17
102
}
330
17
100
AcDbMlineStyle
  2
Standard
 70
     0
  3

 62
   256
 51
90.0
 52
90.0
 71
     4
 49
0.5
 62
   256
  6
BYLAYER
 49
-0.5
 62
   256
  6
BYLAYER
 49
0.5
 62
   256
  6
BYLAYER
 49
-0.5
 62
   256
  6
BYLAYER
  0
ACDBPLACEHOLDER
  5
F
102
{ACAD_REACTORS
330
E
102
}
330
E
  0
VISUALSTYLE
  5
2F
102
{ACAD_REACTORS
330
2A
102
}
330
2A
100
AcDbVisualStyle
  2
2dWireframe
 70
     4
 71
     0
 72
     2
 73
     0
 90
        0
 40
-0.6
 41
-30.0
 62
     5
 63
     7
421
 16777215
 74
     1
 91
        4
 64
     7
 65
   257
 75
     1
175
     1
 42
1.0
 92
        0
 66
   257
 43
1.0
 76
     1
 77
     6
 78
     2
 67
     7
 79
     5
170
     0
171
     0
290
     0
174
     0
 93
        1
 44
0.0
173
     0
291
     0
 45
0.0
1001
ACAD
1000
AcDbSavedByObjectVersion
1070
     0
  0
VISUALSTYLE
  5
31
102
{ACAD_REACTORS
330
2A
102
}
330
2A
100
AcDbVisualStyle
  2
3D Hidden
 70
     6
 71
     1
 72
     2
 73
     2
 90
        0
 40
-0.6
 41
-30.0
 62
     5
 63
     7
421
 16777215
 74
     2
 91
        2
 64
     7
 65
   257
 75
     2
175
     1
 42
40.0
 92
        0
 66
   257
 43
1.0
 76
     1
 77
     6
 78
     2
 67
     7
 79
     3
170
     0
171
     0
290
     0
174
     0
 93
        1
 44
0.0
173
     0
291
     0
 45
0.0
1001
ACAD
1000
AcDbSavedByObjectVersion
1070
     0
  0
VISUALSTYLE
  5
30
102
{ACAD_REACTORS
330
2A
102
}
330
2A
100
AcDbVisualStyle
  2
3dWireframe
 70
     5
 71
     0
 72
     2
 73
     0
 90
        0
 40
-0.6
 41
-30.0
 62
     5
 63
     7
421
 16777215
 74
     1
 91
        4
 64
     7
 65
   257
 75
     1
175
     1
 42
1.0
 92
        0
 66
   257
 43
1.0
 76
     1
 77
     6
 78
     2
 67
     7
 79
     5
170
     0
171
     0
290
     0
174
     0
 93
        1
 44
0.0
173
     0
291
     0
 45
0.0
1001
ACAD
1000
AcDbSavedByObjectVersion
1070
     0
  0
VISUALSTYLE
  5
32
102
{ACAD_REACTORS
330
2A
102
}
330
2A
100
AcDbVisualStyle
  2
Basic
 70
     7
 71
     1
 72
     0
 73
     1
 90
        0
 40
-0.6
 41
-30.0
 62
     5
 63
     7
421
 16777215
 74
     0
 91
        4
 64
     7
 65
   257
 75
     1
175
     1
 42
1.0
 92
        8
 66
     7
 43
1.0
 76
     1
 77
     6
 78
     2
 67
     7
 79
     5
170
     0
171
     0
290
     0
174
     0
 93
        1
 44
0.0
173
     0
291
     1
 45
0.0
1001
ACAD
1000
AcDbSavedByObjectVersion
1070
     0
  0
VISUALSTYLE
  5
36
102
{ACAD_REACTORS
330
2A
102
}
330
2A
100
AcDbVisualStyle
  2
Brighten
 70
    12
 71
     2
 72
     2
 73
     0
 90
        0
 40
-0.6
 41
-30.0
 62
     5
 63
     7
421
 16777215
 74
     1
 91
        4
 64
     7
 65
   257
 75
     1
175
     1
 42
1.0
 92
        8
 66
     7
 43
1.0
 76
     1
 77
     6
 78
     2
 67
     7
 79
     5
170
     0
171
     0
290
     0
174
     0
 93
        1
 44
50.0
173
     0
291
     1
 45
0.0
1001
ACAD
1000
AcDbSavedByObjectVersion
1070
     0
  0
VISUALSTYLE
  5
3A
102
{ACAD_REACTORS
330
2A
102
}
330
2A
100
AcDbVisualStyle
  2
ColorChange
 70
    16
 71
     2
 72
     2
 73
     3
 90
        0
 40
-0.6
 41
-30.0
 62
     5
 63
     8
421
  8421504
 74
     1
 91
        4
 64
     7
 65
   257
 75
     1
175
     1
 42
1.0
 92
        8
 66
     8
424
  8421504
 43
1.0
 76
     1
 77
     6
 78
     2
 67
     7
 79
     5
170
     0
171
     0
290
     0
174
     0
 93
        1
 44
0.0
173
     0
291
     1
 45
0.0
1001
ACAD
1000
AcDbSavedByObjectVersion
1070
     0
  0
VISUALSTYLE
  5
34
102
{ACAD_REACTORS
330
2A
102
}
330
2A
100
AcDbVisualStyle
  2
Conceptual
 70
     9
 71
     3
 72
     2
 73
     0
 90
        0
 40
-0.6
 41
-30.0
 62
     5
 63
     7
421
 16777215
 74
     2
 91
        2
 64
     7
 65
   257
 75
     1
175
     1
 42
40.0
 92
        8
 66
     7
 43
1.0
 76
     1
 77
     6
 78
     2
 67
     7
 79
     3
170
     0
171
     0
290
     0
174
     0
 93
        1
 44
0.0
173
     0
291
     0
 45
0.0
1001
ACAD
1000
AcDbSavedByObjectVersion
1070
     0
  0
VISUALSTYLE
  5
35
102
{ACAD_REACTORS
330
2A
102
}
330
2A
100
AcDbVisualStyle
  2
Dim
 70
    11
 71
     2
 72
     2
 73
     0
 90
        0
 40
-0.6
 41
-30.0
 62
     5
 63
     7
421
 16777215
 74
     1
 91
        4
 64
     7
 65
   257
 75
     1
175
     1
 42
1.0
 92
        8
 66
     7
 43
1.0
 76
     1
 77
     6
 78
     2
 67
     7
 79
     5
170
     0
171
     0
290
     0
174
     0
 93
        1
 44
-50.0
173
     0
291
     1
 45
0.0
1001
ACAD
1000
AcDbSavedByObjectVersion
1070
     0
  0
VISUALSTYLE
  5
39
102
{ACAD_REACTORS
330
2A
102
}
330
2A
100
AcDbVisualStyle
  2
Facepattern
 70
    15
 71
     2
 72
     2
 73
     0
 90
        0
 40
-0.6
 41
-30.0
 62
     5
 63
     7
421
 16777215
 74
     1
 91
        4
 64
     7
 65
   257
 75
     1
175
     1
 42
1.0
 92
        8
 66
     7
 43
1.0
 76
     1
 77
     6
 78
     2
 67
     7
 79
     5
170
     0
171
     0
290
     0
174
     0
 93
        1
 44
0.0
173
     0
291
     1
 45
0.0
1001
ACAD
1000
AcDbSavedByObjectVersion
1070
     0
  0
VISUALSTYLE
  5
2B
102
{ACAD_REACTORS
330
2A
102
}
330
2A
100
AcDbVisualStyle
  2
Flat
 70
     0
 71
     2
 72
     1
 73
     1
 90
        2
 40
-0.6
 41
30.0
 62
     5
 63
     7
421
 16777215
 74
     0
 91
        4
 64
     7
 65
   257
 75
     1
175
     1
 42
1.0
 92
        8
 66
     7
 43
1.0
 76
     1
 77
     6
 78
     2
 67
     7
 79
     5
170
     0
171
     0
290
     0
174
     0
 93
       13
 44
0.0
173
     0
291
     1
 45
0.0
1001
ACAD
1000
AcDbSavedByObjectVersion
1070
     0
  0
VISUALSTYLE
  5
2C
102
{ACAD_REACTORS
330
2A
102
}
330
2A
100
AcDbVisualStyle
  2
FlatWithEdges
 70
     1
 71
     2
 72
     1
 73
     1
 90
        2
 40
-0.6
 41
30.0
 62
     5
 63
     7
421
 16777215
 74
     1
 91
        4
 64
     7
 65
   257
 75
     1
175
     1
 42
1.0
 92
        0
 66
   257
 43
1.0
 76
     1
 77
     6
 78
     2
 67
     7
 79
     5
170
     0
171
     0
290
     0
174
     0
 93
       13
 44
0.0
173
     0
291
     1
 45
0.0
1001
ACAD
1000
AcDbSavedByObjectVersion
1070
     0
  0
VISUALSTYLE
  5
2D
102
{ACAD_REACTORS
330
2A
102
}
330
2A
100
AcDbVisualStyle
  2
Gouraud
 70
     2
 71
     2
 72
     2
 73
     1
 90
        2
 40
-0.6
 41
30.0
 62
     5
 63
     7
421
 16777215
 74
     0
 91
        4
 64
     7
 65
   257
 75
     1
175
     1
 42
1.0
 92
        0
 66
     7
 43
1.0
 76
     1
 77
     6
 78
     2
 67
     7
 79
     5
170
     0
171
     0
290
     0
174
     0
 93
       13
 44
0.0
173
     0
291
     1
 45
0.0
1001
ACAD
1000
AcDbSavedByObjectVersion
1070
     0
  0
VISUALSTYLE
  5
2E
102
{ACAD_REACTORS
330
2A
102
}
330
2A
100
AcDbVisualStyle
  2
GouraudWithEdges
 70
     3
 71
     2
 72
     2
 73
     1
 90
        2
 40
-0.6
 41
30.0
 62
     5
 63
     7
421
 16777215
 74
     1
 91
        4
 64
     7
 65
   257
 75
     1
175
     1
 42
1.0
 92
        0
 66
   257
 43
1.0
 76
     1
 77
     6
 78
     2
 67
     7
 79
     5
170
     0
171
     0
290
     0
174
     0
 93
       13
 44
0.0
173
     0
291
     1
 45
0.0
1001
ACAD
1000
AcDbSavedByObjectVersion
1070
     0
  0
VISUALSTYLE
  5
38
102
{ACAD_REACTORS
330
2A
102
}
330
2A
100
AcDbVisualStyle
  2
Linepattern
 70
    14
 71
     2
 72
     2
 73
     0
 90
        0
 40
-0.6
 41
-30.0
 62
     5
 63
     7
421
 16777215
 74
     1
 91
        4
 64
     7
 65
   257
 75
     7
175
     7
 42
1.0
 92
        8
 66
     7
 43
1.0
 76
     1
 77
     6
 78
     2
 67
     7
 79
     5
170
     0
171
     0
290
     0
174
     0
 93
        1
 44
0.0
173
     0
291
     1
 45
0.0
1001
ACAD
1000
AcDbSavedByObjectVersion
1070
     0
  0
VISUALSTYLE
  5
33
102
{ACAD_REACTORS
330
2A
102
}
330
2A
100
AcDbVisualStyle
  2
Realistic
 70
     8
 71
     2
 72
     2
 73
     0
 90
        0
 40
-0.6
 41
-30.0
 62
     5
 63
     7
421
 16777215
 74
     1
 91
        0
 64
     7
 65
   257
 75
     1
175
     1
 42
1.0
 92
        8
 66
     8
424
  7895160
 43
1.0
 76
     1
 77
     6
 78
     2
 67
     7
 79
     5
170
     0
171
     0
290
     0
174
     0
 93
       13
 44
0.0
173
     0
291
     0
 45
0.0
1001
ACAD
1000
AcDbSavedByObjectVersion
1070
     0
  0
VISUALSTYLE
  5
37
102
{ACAD_REACTORS
330
2A
102
}
330
2A
100
AcDbVisualStyle
  2
Thicken
 70
    13
 71
     2
 72
     2
 73
     0
 90
        0
 40
-0.6
 41
-30.0
 62
     5
 63
     7
421
 16777215
 74
     1
 91
        4
 64
     7
 65
   257
 75
     1
175
     1
 42
1.0
 92
       12
 66
     7
 43
1.0
 76
     1
 77
     6
 78
     2
 67
     7
 79
     5
170
     0
171
     0
290
     0
174
     0
 93
        1
 44
0.0
173
     0
291
     1
 45
0.0
1001
ACAD
1000
AcDbSavedByObjectVersion
1070
     0
  0
ENDSEC
  0
SECTION
  2
THUMBNAILIMAGE
 90
    16364
310
28000000B40000005500000001000800000000000000000000000000000000000000000000000000FFFFFF000000FF0000FFFF0000FF0000FFFF0000FF000000FF00FF000000000080808000C0C0C0000000FF007F7FFF000000A5005252A50000007F003F3F7F0000004C0026264C000000260013132600003FFF007F9FFF
310
000029A5005267A500001F7F003F4F7F0000134C00262F4C000009260013172600007FFF007FBFFF000052A500527CA500003F7F003F5F7F0000264C0026394C0000132600131C260000BFFF007FDFFF00007CA5005291A500005F7F003F6F7F0000394C0026424C00001C26001321260000FFFF007FFFFF0000A5A50052A5
310
A500007F7F003F7F7F00004C4C00264C4C00002626001326260000FFBF007FFFDF0000A57C0052A59100007F5F003F7F6F00004C3900264C420000261C001326210000FF7F007FFFBF0000A5520052A57C00007F3F003F7F5F00004C2600264C39000026130013261C0000FF3F007FFF9F0000A5290052A56700007F1F003F
310
7F4F00004C1300264C2F00002609001326170000FF00007FFF7F0000A5000052A55200007F00003F7F3F00004C0000264C260000260000132613003FFF00009FFF7F0029A5000067A552001F7F00004F7F3F00134C00002F4C260009260000172613007FFF0000BFFF7F0052A500007CA552003F7F00005F7F3F00264C0000
310
394C2600132600001C261300BFFF0000DFFF7F007CA5000091A552005F7F00006F7F3F00394C0000424C26001C26000021261300FFFF0000FFFF7F00A5A50000A5A552007F7F00007F7F3F004C4C00004C4C26002626000026261300FFBF0000FFDF7F00A57C0000A59152007F5F00007F6F3F004C3900004C422600261C00
310
0026211300FF7F0000FFBF7F00A5520000A57C52007F3F00007F5F3F004C2600004C39260026130000261C1300FF3F0000FF9F7F00A5290000A56752007F1F00007F4F3F004C1300004C2F26002609000026171300FF000000FF7F7F00A5000000A55252007F0000007F3F3F004C0000004C2626002600000026131300FF00
310
3F00FF7F9F00A5002900A55267007F001F007F3F4F004C0013004C262F002600090026131700FF007F00FF7FBF00A5005200A5527C007F003F007F3F5F004C0026004C2639002600130026131C00FF00BF00FF7FDF00A5007C00A55291007F005F007F3F6F004C0039004C26420026001C0026132100FF00FF00FF7FFF00A5
310
00A500A552A5007F007F007F3F7F004C004C004C264C002600260026132600BF00FF00DF7FFF007C00A5009152A5005F007F006F3F7F0039004C0042264C001C002600211326007F00FF00BF7FFF005200A5007C52A5003F007F005F3F7F0026004C0039264C00130026001C1326003F00FF009F7FFF002900A5006752A500
310
1F007F004F3F7F0013004C002F264C000900260017132600000000002D2D2D005B5B5B0089898900B7B7B700B3B3B30000000000000000000000000000000000000000000000000000000000000000000000000000000000000000000000000000000000000000000000000000000000000000000000000000000000000000
310
00000000000000000000000000000000000000000000000000000000000000000000000000000000000000000000000000000000000000000000000000000000000000000000000000000000000000000000000000000000000000000000000000000000000000000000000000000000000000000000000000000000000000
310
00000000000000000000000000000000000000000000000000000000000000000000000000000000000000000000000000000000000000000000000000000000000000000000000000000000000000000000000000000000000000000000000000000000000000000000000000000000000000000000000000000000000000
310
00000000000000000000000000000000000000000000000000000000000000000000000000000000000000000000000000000000000000000000000000000000000000000000000000000000000000000000000000000000000000000000000000000000000000000000000000000000000000000000000000000000000000
310
00000000000000000000000000000000000000000000000000000000000000000000000000000000000000000000000000000000000000000000000000000000000000000000000000000000000000000000000000000000000000000000000000000000000000000000000000000000000000000000000000000000000000
310
00000000000000000000000000000000000000000000000000000000000000000000000000000000000000000000000000000000000000000000000000000000000000000000000000000000000000000000000000000000000000000000000000000000000000000000000000000000000000000000000000000000000000
310
00000000000000000000000000000000000000000000000000000000000000000000000000000000000000000000000000000000000000000000000000000000000000000000000000000000000000000000000000000000000000000000000000000000000000000000000000000000000000000000000000000000000000
310
00000000000000000000000000000000000000000000000000000000000000000000000000000000000000000000000000000000000000000000000000000000000000000000000000000000000000000000000000000000000000000000000000000000000000000000000000000000000000000000000000000000000000
310
00000000000000000000000000000000000000000000000000000000000000000000000000000000000000000000000000000000000000000000000000000000000000000000000000000000000000000000000000000000000000000000000000000000000000000000000000000000000000000000000000000000000000
310
00000000000000000000000000000000000000000000000000000000000000000000000000000000000000000000000000000000000000000000000000000000000000000000000000000000000000000000000000000000000000000000000000000000000000000000000000000000000000000000000000000000000000
310
00000000000000000000000000000000000000000000000000000000000000000000000000000000000000000000000000000000000000000000000000000000000000000000000000000000000000000000000000000000000000000000000000000000000000000000000000000000000000000000000000000000000000
310
00000000000000000000000000000000000000000000000000000000000000000000000000000000000000000000000000000000000000000000000000000000000000000000000000000000000000000000000000000000000000000000000000000000000000000000000000000000000000000000000000000000000000
310
00000000000000000000000000000000000000000000000000000000000000000000000000000000000000000000000000000000000000000000000000000000000000000000000000000000000000000000000000000000000000000000000000000000000000000000000000000000000000000000000000000000000000
310
00000000000000000000000000000000000000000000000000000000000000000000000000000000000000000000000000000000000000000000000000000000000000000000000000000000000000000000000000000000000000000000000000000000000000000000000000000000000000000000000000000000000000
310
00000000000000000000000000000000000000000000000000000000000000000000000000000000000000000000000000000000000000000000000000000000000000000000000000000000000000000000000000000000000000000000000000000000000000000000000000000000000000000000000000000000000000
310
00000000000000000000000000000000000000000000000000000000000000000000000000000000000000000000000000000000000000000000000000000000000000000000000000000000000000000000000000000000000000000000000000000000000000000000000000000000000000000000000000000000000000
310
00000000000000000000000000000000000000000000000000000000000000000000000000000000000000000000000000000000000000000000000000000000000000000000000000000000000000000000000000000000000000000000000000000000000000000000000000000000000000000000000000000000000000
310
00000000000000000000000000000000000000000000000000000000000000000000000000000000000000000000000000000000000000000000000000000000000000000000000000000000000000000000000000000000000000000000000000000000000000000000000000000000000000000000000000000000000000
310
00000000000000000000000000000000000000000000000000000000000000000000000000000000000000000000000000000000000000000000000000000000000000000000000000000000000000000000000000000000000000000000000000000000000000000000000000000000000000000000000000000000000000
310
00000000000000000000000000000000000000000000000000000000000000000000000000000000000000000000000000000000000000000000000000000000000000000000000000000000000000000000000000000000000000000000000000000000000000000000000000000000000000000000000000000000000000
310
00000000000000000000000000000000000000000000000000000000000000000000000000000000000000000000000000000000000000000000000000000000000000000000000000000000000000000000000000000000000000000000000000000000000000000000000000000000000000000000000000000000000000
310
00000000000000000000000000000000000000000000000000000000000000000000000000000000000000000000000000000000000000000000000000000000000000000000000000000000000000000000000000000000000000000000000000000000000000000000000000000000000000000000000000000000000000
310
00000000000000000000000000000000000000000000000000000000000000000000000000000000000000000000000000000000000000000000000000000000000000000000000000000000000000000000000000000000000000000000000000000000000000000000000000000000000000000000000000000000000000
310
00000000000000000000000000000000000000000000000000000000000000000000000000000000000000000000000000000000000000000000000000000000000000000000000000000000000000000000000000000000000000000000000000000000000000000000000000000000000000000000000000000000000000
310
00000000000000000000000000000000000000000000000000000000000000000000000000000000000000000000000000000000000000000000000000000000000000000000000000000000000000000000000000000000000000000000000000000000000000000000000000000000000000000000000000000000000000
310
00000000000000000000000000000000000000000000000000000000000000000000000000000000000000000000000000000000000000000000000000000000000000000000000000000000000000000000000000000000000000000000000000000000000000000000000000000000000000000000000000000000000000
310
000000000000000000000000000000000000000000000000000000000000000000000000000000000000000000000000000000000000000000000000000000000000000000000000000000000000000000000000000000000000AEAEAEAEAEAEAEAEAEAEAEAE00000000000000000000000000000000000000000000000000
310
00000000000000000000000000000000000000000000000000000000000000000000000000000000000000000000000000000000000000000000000000000000000000000000000000000000000000000000000000000000000000000000000000000000000000000000000000000000000000000000000000000000000000
310
0000000000000000000000000000AEAE0000000000000000000000AEAEAEAEAE0000000000000000000000000000000000000000000000000000000000000000000000000000000000000000000000000000000000000000000000000000000000000000000000000000000000000000000000000000000000000000000000
310
000000000000000000000000000000000000000000000000000000000000000000000000000000000000000000000000000000000000000000000000000000000000AE0000000000000000000000000000000000AEAEAEAE000000000000000000000000000000000000000000000000000000000000000000000000000000
310
000000000000000000000000000000000000000000000000000000000000000000000000000000000000000000000000000000000000000000000000000000000000000000000000000000000000000000000000000000000000000000000000000000000000000000000000000000000000000000AEAEFF00000000000000
310
00000000000000000000000000AEAEAE000000000000000000000000000000000000000000000000000000000000000000000000000000000000000000000000000000000000000000000000000000000000000000000000000000000000000000000000000000000000000000000000000000000000000000000000000000
310
0000000000000000000000000000000000000000000000000000000000000000000000000000000000AEAEFFFF00FFFF000000000000000000000000000000000000000000AEAEAE00000000000000000000000000000000000000000000000000000000000000000000000000000000000000000000000000000000000000
310
000000000000000000000000000000000000000000000000000000000000000000000000000000000000000000000000000000000000000000000000000000000000000000000000000000000000000000000000000000000000000000AEFFFF0000000000FFFF000000000000000000000000000000000000000000AEAEAE
310
00000000000000000000000000000000000000000000000000000000000000000000000000000000000000000000000000000000000000000000000000000000000000000000000000000000000000000000000000000000000000000000000000000000000000000000000000000000000000000000000000000000000000
310
0000000000000000000000000000000000AEAEFF000000000000000000FFFF000000000000000000000000000000000000000000AEAEAE000000000000000000000000000000000000000000000000000000000000000000000000000000000000000000000000000000000000000000000000000000000000000000000000
310
000000000000000000000000000000000000000000000000000000000000000000000000000000000000000000000000000000000000000000000000000000000000000000AEFFFF000000000000000000000000FF00000000000000000000000000000000000000000000AEAEAE0000000000000000000000000000000000
310
000000000000000000000000000000000000000000000000000000000000000000000000000000000000000000000000000000000000000000000000000000000000000000000000000000000000000000000000000000000000000000000000000000000000000000000000000000000000000000000000AEAEFF00000000
310
0000000000000000000000FFFF00000000000000000000000000000000000000000000AEAEAE0000000000000000000000000000000000000000000000000000000000000000000000000000000000000000000000000000000000000000000000000000000000000000000000000000000000000000000000000000000000
310
0000000000000000000000000000000000000000000000000000000000000000000000000000000000000000AEAEFF00000000000000000000000000000000000000FFFF00000000000000000000000000000000000000000000AEAEAE00000000000000000000000000000000000000000000000000000000000000000000
310
000000000000000000000000000000000000000000000000000000000000000000000000000000000000000000000000000000000000000000000000000000000000000000000000000000000000000000000000000000000000000000000000AEFFFF00000000000000000000000000000000000000000000FF0000000000
310
000000000000000000000000000000000000AEAE0000000000000000000000000000000000000000000000000000000000000000000000000000000000000000000000000000000000000000000000000000000000000000000000000000000000000000000000000000000000000000000000000000000000000000000000
310
0000000000000000000000000000000000000000AEAEFF00000000000000000000000000000000000000000000000000FFFF00000000000000000000000000000000000000000000AEAE0000000000000000000000000000000000000000000000000000000000000000000000000000000000000000000000000000000000
310
0000000000000000000000000000000000000000000000000000000000000000000000000000000000000000000000000000000000000000000000000000000000000000000000AEAEFF0000000000000000000000000000000000000000000000000000000000FFFF000000000000000000000000000000000000000000AE
310
0000000000000000000000000000000000000000000000000000000000000000000000000000000000000000000000000000000000000000000000000000000000000000000000000000000000000000000000000000000000000000000000000000000000000000000000000000000000000000000000000000AEAE000000
310
FFFF0000000000000000000000000000000000000000000000000000000000FFFF00000000000000000000000000000000000000AEAE00000000000000000000000000000000000000000000000000000000000000000000000000000000000000000000000000000000000000000000000000000000000000000000000000
310
00000000000000000000000000000000000000000000000000000000000000000000000000000000000000000000AEAE00000000000000FFFF0000000000000000000000000000000000000000000000000000000000FF00000000000000000000000000000000000000AE0000000000000000000000000000000000000000
310
00000000000000000000000000000000000000000000000000000000000000000000000000000000000000000000000000000000000000000000000000000000000000000000000000000000000000000000000000000000000000000000000000AEAE0000000000000000000000FFFF000000000000000000000000000000
310
00000000000000000000000000FFFF0000000000000000000000000000000000AE00000000000000000000000000000000000000000000000000000000000000000000000000000000000000000000000000000000000000000000000000000000000000000000000000000000000000000000000000000000000000000000
310
00000000000000000000000000000000000000000000AE000000000000000000000000000000FF0000000000000000000000000000000000000000000000000000000000FFFF000000000000000000000000000000AE0000000000000000000000000000000000000000000000000000000000000000000000000000000000
310
00000000000000000000000000000000000000000000000000000000000000000000000000000000000000000000000000000000000000000000000000000000000000000000000000AEAE0000000000000000000000000000000000FFFF0000000000000000000000000000000000000000000000000000000000FF000000
310
00000000000000000000AEAE00000000000000000000000000000000000000000000000000000000000000000000000000000000000000000000000000000000000000000000000000000000000000000000000000000000000000000000000000000000000000000000000000000000000000000000000000000000AEAE00
310
0000000000000000000000000000000000000000FFFF00000000000000000000000000000000000000000000000000000000FFFF0000000000000000000000AE000000000000000000000000000000000000000000000000000000000000000000000000000000000000000000000000000000000000000000000000000000
310
00000000000000000000000000000000000000000000000000000000000000000000000000000000000000000000000000AE00000000000000000000000000000000000000000000000000FF0000000000000000000000000000000000000000000000000000000000FFFF0000000000000000AEAE00000000000000000000
310
00000000000000000000000000000000000000000000000000000000000000000000000000000000000000000000000000000000000000000000000000000000000000000000000000000000000000000000000000000000000000000000000000000000AEAE00000000000000000000000000000000000000000000000000
310
0000FFFF0000000000000000000000000000000000000000000000000000000000FFFF0000000000AEAE00000000000000000000000000000000000000000000000000000000000000000000000000000000000000000000000000000000000000000000000000000000000000000000000000000000000000000000000000
310
000000000000000000000000000000000000000000000000AEAE00000000000000000000000000000000000000000000000000000000000000FFFF0000000000000000000000000000000000000000000000000000000000FF000000AEAE000000000000000000000000000000000000000000000000000000000000000000
310
000000000000000000000000000000000000000000000000000000000000000000000000000000000000000000000000000000000000000000000000000000000000000000000000000000AEAE0000000000000000000000000000000000000000000000000000000000000000000000FFFF00000000000000000000000000
310
000000000000000000000000FFFF0000AEAE000000000000000000000000000000000000000000000000000000000000000000000000000000000000000000000000000000000000000000000000000000000000000000000000000000000000000000000000000000000000000000000000000000000000000000000000AE
310
AE000000000000000000000000000000000000000000000000000000000000000000000000000000FF00000000000000000000000000000000000000000000FFFF0000AEAE00000000000000000000000000000000000000000000000000000000000000000000000000000000000000000000000000000000000000000000
310
0000000000000000000000000000000000000000000000000000000000000000000000000000000000000000000000000000AEAE000000000000000000000000000000000000000000000000000000000000000000000000000000000000FFFF00000000000000000000000000000000000000FF000000AE00000000000000
310
000000000000000000000000000000000000000000000000000000000000000000000000000000000000000000000000000000000000000000000000000000000000000000000000000000000000000000000000000000000000000000000000000000000000AE000000000000000000000000000000000000000000000000
310
00000000000000000000000000000000000000000000FFFF000000000000000000000000000000FFFF0000AEAE00000000000000000000000000000000000000000000000000000000000000000000000000000000000000000000000000000000000000000000000000000000000000000000000000000000000000000000
310
0000000000000000000000000000000000000000000000000000AEAE00000000000000000000000000000000000000000000000000000000000000000000000000000000000000000000000000FF000000000000000000000000FFFF000000AE00000000000000000000000000000000000000000000000000000000000000
310
0000000000000000000000000000000000000000000000000000000000000000000000000000000000000000000000000000000000000000000000000000000000000000000000000000000000AEAE000000000000000000000000000000000000000000000000000000000000000000000000000000000000000000000000
310
00000000FFFF000000000000000000FF000808AEAE00000000000000000000000000000000000000000000000000000000000000000000000000000000000000000000000000000000000000000000000000000000000000000000000000000000000000000000000000000000000000000000000000000000000000000000
310
0000AE0000000000000000000000000000000000000000000000000000000000000000000000000000000000000000000000000000000000000000FFFF0000000000FFFF0008AEAE00000000000000000000000000000000000000000000000000000000000000000000000000000000000000000000000000000000000000
310
0000000000000000000000000000000000000000000000000000000000000000000000000000000000000000000000000000000000AEAE0000000000000000000000000000000000000000000000000000000000000000000000000000000000000000000000000000000000000000000000FFFF00FFFF0808AEAE08000000
310
000000000000000000000000000000000000000000000000000000000000000000000000000000000000000000000000000000000000000000000000000000000000000000000000000000000000000000000000000000000000000000000000000000000000000000AE000000000000000000000000000000000000000000
310
000000000000000000000000000000000000000000000000000000000000000000000000000000000000FF0008AEAEAE00000000000000000000000000000000000000000000000000000000000000000000000000000000000000000000000000000000000000000000000000000000000000000000000000000000000000
310
0000000000000000000000000000000000000000000000000000000000AEAE0000000000000000000000000000000000000000000000000000000000000000000000000000000000000000000000000000000000000000000000000000000808AEAEAE00000000000000000000000000000000000000000000000000000000
310
0000000000000000000000000000000000000000000000000000000000000000000000000000000000000000000000000000000000000000000000000000000000000000000000000000000000000000AEAE000000000000000000000000000000000000000000000000000000000000000000000000000000000000000000
310
0000000000000000000000000000000000000808AEAE080000000000000000000000000000000000000000000000000000000000000000000000000000000000000000000000000000000000000000000000000000000000000000000000000000000000000000000000000000000000000000000000000000000000000000
310
0000000000AE0000000000000000000000000000000000000000000000000000000000000000000000000000000000000000000000000000000000000000000000000000000808AEAE000000000000000000000000000000000000000000000000000000000000000000000000000000000000000000000000000000000000
310
0000000000000000000000000000000000000000000000000000000000000000000000000000000000000000000000000000000000000000AEAE00000000000000000000000000000000000000000000000000000000000000000000000000000000000000000000000000000000000000000000000000000808AEAE080000
310
0000000000000000000000000000000000000000000000000000000000000000000000000000000000000000000000000000000000000000000000000000000000000000000000000000000000000000000000000000000000000000000000000000000000000000000000AEAE000000000000000000000000000000000000
310
000000000000000000000000000000000000000000000000000000000000000000000000000000000000000008AEAEAE08000000000000000000000000000000000000000000000000000000000000000000000000000000000000000000000000000000000000000000000000000000000000000000000000000000000000
310
00000000000000000000000000000000000000000000000000000000000000AEAE000000000000000000000000000000000000000000000000000000000000000000000000000000000000000000000000000800000000000000000000000808AEAE0808080000000000000000000000000000000000000000000000000000
310
00000000000000000000000000000000000000000000000000000000000000000000000000000000000000000000000000000000000000000000000000000000000000000000000000000000000000000000AEAE00000000000000000000000000000000000000000000000000000000000000000000000000000000000000
310
00000000000008080008080000000000000808AEAEAE000800000000000000000000000000000000000000000000000000000000000000000000000000000000000000000000000000000000000000000000000000000000000000000000000000000000000000000000000000000000000000000000000000000000000000
310
000000000000000000AE000000000000000000000000000000000000000000000000000000000000000000000000000000000000000000000008080007070000080800080808AEAEAE080808000000000000000000000000000000000000000000000000000000000000000000000000000000000000000000000000000000
310
000000000000000000000000000000000000000000000000000000000000000000000000000000000000000000000000000000000000000000000000000000AEAEAE000000000000000000000000000000000000000000000000000000000000000000000000000000000000000800000000000707000008AEAEAEAE000808
310
0000000000000000000000000000000000000000000000000000000000000000000000000000000000000000000000000000000000000000000000000000000000000000000000000000000000000000000000000000000000000000000000000000000000000000000000000000000000000000000000AE00000000000000
310
00000000000000000000000000000000000000000000000000000000000000000008080000000000000000AEAEAEAE0008080800000000000000000000000000000000000000000000000000000000000000000000000000000000000000000000000000000000000000000000000000000000000000000000000000000000
310
00000000000000000000000000000000000000000000000000000000000000000000000000000000000000000000AEAE000000000000000000000000000000000000000000000000000000000000000000000000070800000000000000AEAEAEAE000708080000000000000000000000000000000000000000000000000000
310
0000000000000000000000000000000000000000000000000000000000000000000000000000000000000000000000000000000000000000000000000000000000000000000000000000000000000000000000000000000000000000000000000000000000AE00000000000000000000000000000000000000000000000000
310
000000000000000000070800000000AEAEAEAE000000070808080000000000000000000000000000000000000000000000000000000000000000000000000000000000000000000000000000000000000000000000000000000000000000000000000000000000000000000000000000000000000000000000000000000000
310
00000000000000000000000000000000000000000000000000000000AEAEAE000000000000000000000000000000000000000000000000000000000008080007AEAEAEAEAE00000000000808080000000000000000000000000000000000000000000000000000000000000000000000000000000000000000000000000000
310
0000000000000000000000000000000000000000000000000000000000000000000000000000000000000000000000000000000000000000000000000000000000000000000000000000000000000000000000AEAEAE000000000000000000000000000000000000000000000000000008AEAEAEAEAE070700000000000808
310
08000000000000000000000000000000000000000000000000000000000000000000000000000000000000000000000000000000000000000000000000000000000000000000000000000000000000000000000000000000000000000000000000000000000000000000000000000000000000000000000000000000000000
310
000000000000000000000000AEAEAEAEAE000000000000000000000000000000AEAEAEAEAEAEAE00080000000000070700080800000000000000000000000000000000000000000000000000000000000000000000000000000000000000000000000000000000000000000000000000000000000000000000000000000000
310
000000000000000000000000000000000000000000000000000000000000000000000000000000000000000000000000000000000000000000000000000000000000000000AEAEAEAEAEAEAEAEAEAEAEAEAEAEAEAE000000000000000000080800000000080800000000000000000000000000000000000000000000000000
310
00000000000000000000000000000000000000000000000000000000000000000000000000000000000000000000000000000000000000000000000000000000000000000000000000000000000000000000000000000000000000000000000000000000000000000000000000000000000000000000000000000000000000
310
00000000000000000000000000000000000000000000080808080000000000000000000000000000000000000000000000000000000000000000000000000000000000000000000000000000000000000000000000000000000000000000000000000000000000000000000000000000000000000000000000000000000000
310
00000000000000000000000000000000000000000000000000000000000000000000000000000000000000000000000000000000000000000000000000000000000000000000000000000000000000000000000000000000000000000000000000000000000000000000000000000000000000000000000000000000000000
310
00000000000000000000000000000000000000000000000000000000000000000000000000000000000000000000000000000000000000000000000000000000000000000000000000000000000000000000000000000000000000000000000000000000000000000000000000000000000000000000000000000000000000
310
00000000000000000000000000000000000000000000000000000000000000000000000000000000000000000000000000000000000000000000000000000000000000000000000000000000000000000000000000000000000000000000000000000000000000000000000000000000000000000000000000000000000000
310
00000000000000000000000000000000000000000000000000000000000000000000000000000000000000000000000000000000000000000000000000000000000000000000000000000000000000000000000000000000000000000000000000000000000000000000000000000000000000000000000000000000000000
310
00000000000000000000000000000000000000000000000000000000000000000000000000000000000000000000000000000000000000000000000000000000000000000000000000000000000000000000000000000000000000000000000000000000000000000000000000000000000000000000000000000000000000
310
00000000000000000000000000000000000000000000000000000000000000000000000000000000000000000000000000000000000000000000000000000000000000000000000000000000000000000000000000000000000000000000000000000000000000000000000000000000000000000000000000000000000000
310
00000000000000000000000000000000000000000000000000000000000000000000000000000000000000000000000000000000000000000000000000000000000000000000000000000000000000000000000000000000000000000000000000000000000000000000000000000000000000000000000000000000000000
310
00000000000000000000000000000000000000000000000000000000000000000000000000000000000000000000000000000000000000000000000000000000000000000000000000000000000000000000000000000000000000000000000000000000000000000000000000000000000000000000000000000000000000
310
00000000000000000000000000000000000000000000000000000000000000000000000000000000000000000000000000000000000000000000000000000000000000000000000000000000000000000000000000000000000000000000000000000000000000000000000000000000000000000000000000000000000000
310
00000000000000000000000000000000000000000000000000000000000000000000000000000000000000000000000000000000000000000000000000000000000000000000000000000000000000000000000000000000000000000000000000000000000000000000000000000000000000000000000000000000000000
310
00000000000000000000000000000000000000000000000000000000000000000000000000000000000000000000000000000000000000000000000000000000000000000000000000000000000000000000000000000000000000000000000000000000000000000000000000000000000000000000000000000000000000
310
00000000000000000000000000000000000000000000000000000000000000000000000000000000000000000000000000000000000000000000000000000000000000000000000000000000000000000000000000000000000000000000000000000000000000000000000000000000000000000000000000000000000000
310
00000000000000000000000000000000000000000000000000000000000000000000000000000000000000000000000000000000000000000000000000000000000000000000000000000000000000000000000000000000000000000000000000000000000000000000000000000000000000000000000000000000000000
310
00000000000000000000000000000000000000000000000000000000000000000000000000000000000000000000000000000000000000000000000000000000000000000000000000000000000000000000000000000000000000000000000000000000000000000000000000000000000000000000000000000000000000
310
00000000000000000000000000000000000000000000000000000000000000000000000000000000000000000000000000000000000000000000000000000000000000000000000000000000000000000000000000000000000000000000000000000000000000000000000000000000000000000000000000000000000000
310
00000000000000000000000000000000000000000000000000000000000000000000000000000000000000000000000000000000000000000000000000000000000000000000000000000000000000000000000000000000000000000000000000000000000000000000000000000000000000000000000000000000000000
310
00000000000000000000000000000000000000000000000000000000000000000000000000000000000000000000000000000000000000000000000000000000000000000000000000000000000000000000000000000000000000000000000000000000000000000000000000000000000000000000000000000000000000
310
00000000000000000000000000000000000000000000000000000000000000000000000000000000000000000000000000000000000000000000000000000000000000000000000000000000000000000000000000000000000000000000000000000000000000000000000000000000000000000000000000000000000000
310
00000000000000000000000000000000000000000000000000000000000000000000000000000000000000000000000000000000000000000000000000000000000000000000000000000000000000000000000000000000000000000000000000000000000000000000000000000000000000000000000000000000000000
310
00000000000000000000000000000000000000000000000000000000000000000000000000000000000000000000000000000000000000000000000000000000000000000000000000000000000000000000000000000000000000000000000000000000000000000000000000000000000000000000000000000000000000
310
00000000000000000000000000000000000000000000000000000000000000000000000000000000000000000000000000000000000000000000000000000000000000000000000000000000000000000000000000000000000000000000000000000000000000000000000000000000000000000000000000000000000000
310
00000000000000000000000000000000000000000000000000000000000000000000000000000000000000000000000000000000000000000000000000000000000000000000000000000000000000000000000000000000000000000000000000000000000000000000000000000000000000000000000000000000000000
310
00000000000000000000000000000000000000000000000000000000000000000000000000000000000000000000000000000000000000000000000000000000000000000000000000000000000000000000000000000000000000000000000000000000000000000000000000000000000000000000000000000000000000
310
00000000000000000000000000000000000000000000000000000000000000000000000000000000000000000000000000000000000000000000000000000000000000000000000000000000000000000000000000000000000000000000000000000000000000000000000000000000000000000000000000000000000000
310
00000000000000000000000000000000000000000000000000000000000000000000000000000000000000000000000000000000000000000000000000000000000000000000000000000000000000000000000000000000000000000000000000000000000000000000000000000000000000000000000000000000000000
310
00000000000000000000000000000000000000000000000000000000000000000000000000000000000000000000000000000000000000000000000000000000000000000000000000000000000000000000000000000000000000000000000000000000000000000000000000000000000000000000000000000000000000
310
000000000000000000000000000000000000000000000000000000000000000000000000000000000000000000000000000000000000000000000000000000000000000000000000000000000000000000000000000000000000000000000000000000000000000000000000
  0
ENDSEC
  0
EOF
