  0
SECTION
  2
HEADER
  9
$ACADVER
  1
AC1015
  9
$ACADMAINTVER
 70
     6
  9
$DWGCODEPAGE
  3
ANSI_1252
  9
$INSBASE
 10
0.0
 20
0.0
 30
0.0
  9
$EXTMIN
 10
-0.5
 20
-0.5
 30
-0.5
  9
$EXTMAX
 10
5.0
 20
5.0
 30
5.0
  9
$LIMMIN
 10
-0.5
 20
-0.5
  9
$LIMMAX
 10
5.0
 20
5.0
  9
$ORTHOMODE
 70
     0
  9
$REGENMODE
 70
     1
  9
$FILLMODE
 70
     1
  9
$QTEXTMODE
 70
     0
  9
$MIRRTEXT
 70
     1
  9
$LTSCALE
 40
1.0
  9
$ATTMODE
 70
     1
  9
$TEXTSIZE
 40
0.2
  9
$TRACEWID
 40
0.05
  9
$TEXTSTYLE
  7
Standard
  9
$CLAYER
  8
0
  9
$CELTYPE
  6
Continuous
  9
$CECOLOR
 62
   256
  9
$CELTSCALE
 40
1.0
  9
$DISPSILH
 70
     0
  9
$DIMSCALE
 40
1.0
  9
$DIMASZ
 40
0.18
  9
$DIMEXO
 40
0.0625
  9
$DIMDLI
 40
0.38
  9
$DIMRND
 40
0.0
  9
$DIMDLE
 40
0.0
  9
$DIMEXE
 40
0.18
  9
$DIMTP
 40
0.0
  9
$DIMTM
 40
0.0
  9
$DIMTXT
 40
0.18
  9
$DIMCEN
 40
0.09
  9
$DIMTSZ
 40
0.0
  9
$DIMTOL
 70
     0
  9
$DIMLIM
 70
     0
  9
$DIMTIH
 70
     1
  9
$DIMTOH
 70
     1
  9
$DIMSE1
 70
     0
  9
$DIMSE2
 70
     0
  9
$DIMTAD
 70
     0
  9
$DIMZIN
 70
     0
  9
$DIMBLK
  1

  9
$DIMASO
 70
     1
  9
$DIMSHO
 70
     1
  9
$DIMPOST
  1

  9
$DIMAPOST
  1

  9
$DIMALT
 70
     0
  9
$DIMALTD
 70
     2
  9
$DIMALTF
 40
25.4
  9
$DIMLFAC
 40
1.0
  9
$DIMTOFL
 70
     0
  9
$DIMTVP
 40
0.0
  9
$DIMTIX
 70
     0
  9
$DIMSOXD
 70
     0
  9
$DIMSAH
 70
     0
  9
$DIMBLK1
  1

  9
$DIMBLK2
  1

  9
$DIMSTYLE
  2
Standard
  9
$DIMCLRD
 70
     0
  9
$DIMCLRE
 70
     0
  9
$DIMCLRT
 70
     0
  9
$DIMTFAC
 40
1.0
  9
$DIMGAP
 40
0.09
  9
$DIMJUST
 70
     0
  9
$DIMSD1
 70
     0
  9
$DIMSD2
 70
     0
  9
$DIMTOLJ
 70
     1
  9
$DIMTZIN
 70
     0
  9
$DIMALTZ
 70
     0
  9
$DIMALTTZ
 70
     0
  9
$DIMUPT
 70
     0
  9
$DIMDEC
 70
     4
  9
$DIMTDEC
 70
     4
  9
$DIMALTU
 70
     2
  9
$DIMALTTD
 70
     2
  9
$DIMTXSTY
  7
Standard
  9
$DIMAUNIT
 70
     0
  9
$DIMADEC
 70
     0
  9
$DIMALTRND
 40
0.0
  9
$DIMAZIN
 70
     0
  9
$DIMDSEP
 70
     0
  9
$DIMATFIT
 70
     3
  9
$DIMFRAC
 70
     0
  9
$DIMLDRBLK
  1

  9
$DIMLUNIT
 70
     2
  9
$DIMLWD
 70
     0
  9
$DIMLWE
 70
     0
  9
$DIMTMOVE
 70
     0
  9
$LUNITS
 70
     2
  9
$LUPREC
 70
     4
  9
$SKETCHINC
 40
0.1
  9
$FILLETRAD
 40
0.0
  9
$AUNITS
 70
     0
  9
$AUPREC
 70
     0
  9
$MENU
  1
acad
  9
$ELEVATION
 40
0.0
  9
$PELEVATION
 40
0.0
  9
$THICKNESS
 40
0.0
  9
$LIMCHECK
 70
     0
  9
$CHAMFERA
 40
0.0
  9
$CHAMFERB
 40
0.0
  9
$CHAMFERC
 40
0.0
  9
$CHAMFERD
 40
0.0
  9
$SKPOLY
 70
     0
  9
$TDCREATE
 40
0.000000000
  9
$TDUCREATE
 40
0.000000000
  9
$TDUPDATE
 40
0.000000000
  9
$TDUUPDATE
 40
0.000000000
  9
$TDINDWG
 40
0.0000000000
  9
$TDUSRTIMER
 40
0.0000000000
  9
$USRTIMER
 70
     1
  9
$ANGBASE
 50
0.0
  9
$ANGDIR
 70
     0
  9
$PDMODE
 70
     0
  9
$PDSIZE
 40
0.0
  9
$PLINEWID
 40
0.0
  9
$SPLFRAME
 70
     0
  9
$SPLINETYPE
 70
     6
  9
$SPLINESEGS
 70
     8
  9
$HANDSEED
  5
A4
  9
$SURFTAB1
 70
     6
  9
$SURFTAB2
 70
     6
  9
$SURFTYPE
 70
     6
  9
$SURFU
 70
     6
  9
$SURFV
 70
     6
  9
$UCSBASE
  2

  9
$UCSNAME
  2

  9
$UCSORG
 10
0.0
 20
0.0
 30
0.0
  9
$UCSXDIR
 10
1.0
 20
0.0
 30
0.0
  9
$UCSYDIR
 10
0.0
 20
1.0
 30
0.0
  9
$UCSORTHOREF
  2

  9
$UCSORTHOVIEW
 70
     0
  9
$UCSORGTOP
 10
0.0
 20
0.0
 30
0.0
  9
$UCSORGBOTTOM
 10
0.0
 20
0.0
 30
0.0
  9
$UCSORGLEFT
 10
0.0
 20
0.0
 30
0.0
  9
$UCSORGRIGHT
 10
0.0
 20
0.0
 30
0.0
  9
$UCSORGFRONT
 10
0.0
 20
0.0
 30
0.0
  9
$UCSORGBACK
 10
0.0
 20
0.0
 30
0.0
  9
$PUCSBASE
  2

  9
$PUCSNAME
  2

  9
$PUCSORG
 10
0.0
 20
0.0
 30
0.0
  9
$PUCSXDIR
 10
1.0
 20
0.0
 30
0.0
  9
$PUCSYDIR
 10
0.0
 20
1.0
 30
0.0
  9
$PUCSORTHOREF
  2

  9
$PUCSORTHOVIEW
 70
     0
  9
$PUCSORGTOP
 10
0.0
 20
0.0
 30
0.0
  9
$PUCSORGBOTTOM
 10
0.0
 20
0.0
 30
0.0
  9
$PUCSORGLEFT
 10
0.0
 20
0.0
 30
0.0
  9
$PUCSORGRIGHT
 10
0.0
 20
0.0
 30
0.0
  9
$PUCSORGFRONT
 10
0.0
 20
0.0
 30
0.0
  9
$PUCSORGBACK
 10
0.0
 20
0.0
 30
0.0
  9
$USERI1
 70
     0
  9
$USERI2
 70
     0
  9
$USERI3
 70
     0
  9
$USERI4
 70
     0
  9
$USERI5
 70
     0
  9
$USERR1
 40
0.0
  9
$USERR2
 40
0.0
  9
$USERR3
 40
0.0
  9
$USERR4
 40
0.0
  9
$USERR5
 40
0.0
  9
$WORLDVIEW
 70
     1
  9
$SHADEDGE
 70
     3
  9
$SHADEDIF
 70
    70
  9
$TILEMODE
 70
     0
  9
$MAXACTVP
 70
    64
  9
$PINSBASE
 10
0.0
 20
0.0
 30
0.0
  9
$PLIMCHECK
 70
     0
  9
$PEXTMIN
 10
-0.5
 20
-0.5
 30
-0.5
  9
$PEXTMAX
 10
5.0
 20
5.0
 30
5.0
  9
$PLIMMIN
 10
-0.5
 20
-0.5
  9
$PLIMMAX
 10
5.0
 20
5.0
  9
$UNITMODE
 70
     0
  9
$VISRETAIN
 70
     0
  9
$PLINEGEN
 70
     1
  9
$PSLTSCALE
 70
     0
  9
$TREEDEPTH
 70
  3020
  9
$CMLSTYLE
  2
Standard
  9
$CMLJUST
 70
     0
  9
$CMLSCALE
 40
1.0
  9
$PROXYGRAPHICS
 70
     0
  9
$MEASUREMENT
 70
     0
  9
$CELWEIGHT
370
     0
  9
$ENDCAPS
280
     0
  9
$JOINSTYLE
280
     0
  9
$LWDISPLAY
290
     0
  9
$INSUNITS
 70
     0
  9
$HYPERLINKBASE
  1

  9
$STYLESHEET
  1

  9
$XEDIT
290
     1
  9
$CEPSNTYPE
380
     0
  9
$PSTYLEMODE
290
     1
  9
$FINGERPRINTGUID
  2

  9
$VERSIONGUID
  2

  9
$EXTNAMES
290
     1
  9
$PSVPSCALE
 40
0.0
  0
ENDSEC
  0
SECTION
  2
CLASSES
  0
CLASS
  1
LWPOLYLINE
  2
AcDbPolyline
  3
AutoCAD 2000
 90
        0
280
     0
281
     1
  0
CLASS
  1
IMAGE
  2
AcDbRasterImage
  3
ISM
 90
      127
280
     0
281
     1
  0
CLASS
  1
OLE2FRAME
  2
AcDbOle2Frame
  3
AutoCAD 2000
 90
        0
280
     0
281
     1
  0
CLASS
  1
HATCH
  2
AcDbHatch
  3
AutoCAD 2000
 90
        0
280
     0
281
     1
  0
CLASS
  1
DICTIONARYVAR
  2
AcDbDictionaryVar
  3
AutoCAD 2000
 90
        0
280
     0
281
     0
  0
CLASS
  1
RASTERVARIABLES
  2
AcDbRasterVariables
  3
ISM
 90
        0
280
     0
281
     0
  0
CLASS
  1
IMAGEDEF
  2
AcDbRasterImageDef
  3
ISM
 90
        0
280
     0
281
     0
  0
CLASS
  1
IMAGEDEF_REACTOR
  2
AcDbRasterImageDefReactor
  3
ISM
 90
        1
280
     0
281
     0
  0
CLASS
  1
IDBUFFER
  2
AcDbIdBuffer
  3
AutoCAD 2000
 90
        0
280
     0
281
     0
  0
CLASS
  1
SPATIAL_FILTER
  2
AcDbSpatialFilter
  3
AutoCAD 2000
 90
        0
280
     0
281
     0
  0
CLASS
  1
XRECORD
  2
AcDbXrecord
  3
AutoCAD 2000
 90
        0
280
     0
281
     0
  0
CLASS
  1
SORTENTSTABLE
  2
AcDbSortentsTable
  3
AutoCAD 2000
 90
        0
280
     0
281
     0
  0
CLASS
  1
LAYER_INDEX
  2
AcDbLayerIndex
  3
AutoCAD 2000
 90
        0
280
     0
281
     0
  0
CLASS
  1
SPATIAL_INDEX
  2
AcDbSpatialIndex
  3
AutoCAD 2000
 90
        0
280
     0
281
     0
  0
CLASS
  1
OBJECT_PTR
  2
CAseDLPNTableRecord
  3
"ASE-LPNTableRecord"
 90
        1
280
     0
281
     0
  0
CLASS
  1
LAYOUT
  2
AcDbLayout
  3
AutoCAD 2000
 90
        0
280
     0
281
     0
  0
CLASS
  1
PLOTSETTINGS
  2
AcDbPlotSettings
  3
AutoCAD 2000
 90
        0
280
     0
281
     0
  0
CLASS
  1
ACDBDICTIONARYWDFLT
  2
AcDbDictionaryWithDefault
  3
AutoCAD 2000
 90
        0
280
     0
281
     0
  0
CLASS
  1
ACDBPLACEHOLDER
  2
AcDbPlaceHolder
  3
AutoCAD 2000
 90
        0
280
     0
281
     0
  0
CLASS
  1
VBA_PROJECT
  2
AcDbVbaProject
  3
acadvba
 90
        0
280
     0
281
     0
  0
CLASS
  1
WIPEOUT
  2
AcDbWipeout
  3
WipeOut|AutoCAD Express Tool|expresstools@autodesk.com
 90
      127
280
     0
281
     1
  0
CLASS
  1
WIPEOUTVARIABLES
  2
AcDbWipeoutVariables
  3
WipeOut|AutoCAD Express Tool|expresstools@autodesk.com
 90
        0
280
     0
281
     0
  0
CLASS
  1
RTEXT
  2
RText
  3
RText|AutoCAD Express Tool|expresstools@autodesk.com
 90
        0
280
     0
281
     1
  0
CLASS
  1
ARCALIGNEDTEXT
  2
AcDbArcAlignedText
  3
ATEXT|AutoCAD Express Tool|expresstools@autodesk.com
 90
        0
280
     0
281
     1
  0
ENDSEC
  0
SECTION
  2
TABLES
  0
TABLE
  2
VPORT
  5
7
100
AcDbSymbolTable
 70
    16
  0
VPORT
  5
94
100
AcDbSymbolTableRecord
100
AcDbViewportTableRecord
  2
*ACTIVE
 70
     0
 10
0.0
 20
0.0
 11
1.0
 21
1.0
 12
0.0
 22
0.0
 13
0.0
 23
0.0
 14
1.0
 24
1.0
 15
0.0
 25
0.0
 16
0.0
 26
0.0
 36
1.0
 17
0.0
 27
0.0
 37
0.0
 40
9.63029
 41
0.688564
 42
50.0
 43
28.933368
 44
-28.933368
 50
0.0
 51
0.0
 71
    16
 72
   100
 73
     1
 74
     1
 75
     0
 76
     0
 77
     0
 78
     0
281
     0
 65
     0
110
0.0
120
0.0
130
0.0
111
1.0
121
0.0
131
0.0
112
0.0
122
1.0
132
0.0
345
0
346
0
 79
     0
146
0.0
  0
VPORT
  5
95
100
AcDbSymbolTableRecord
100
AcDbViewportTableRecord
  2
L1
 70
     0
 10
0.0
 20
0.0
 11
1.0
 21
1.0
 12
0.0
 22
0.0
 13
0.0
 23
0.0
 14
1.0
 24
1.0
 15
0.0
 25
0.0
 16
0.0
 26
0.0
 36
1.0
 17
0.0
 27
0.0
 37
0.0
 40
9.63029
 41
0.688564
 42
50.0
 43
28.933368
 44
-28.933368
 50
0.0
 51
0.0
 71
    16
 72
   100
 73
     1
 74
     1
 75
     0
 76
     0
 77
     0
 78
     0
281
     0
 65
     0
110
0.0
120
0.0
130
0.0
111
1.0
121
0.0
131
0.0
112
0.0
122
1.0
132
0.0
345
0
346
0
 79
     0
146
0.0
  0
VPORT
  5
96
100
AcDbSymbolTableRecord
100
AcDbViewportTableRecord
  2
L2
 70
     0
 10
0.0
 20
0.0
 11
0.5
 21
1.0
 12
0.0
 22
0.0
 13
0.0
 23
0.0
 14
1.0
 24
1.0
 15
0.0
 25
0.0
 16
0.0
 26
-1.0
 36
0.0
 17
0.0
 27
0.0
 37
0.0
 40
56.455353
 41
0.688564
 42
50.0
 43
28.964875
 44
-28.964875
 50
0.0
 51
0.0
 71
    16
 72
   100
 73
     1
 74
     1
 75
     0
 76
     0
 77
     0
 78
     0
281
     0
 65
     0
110
0.0
120
0.0
130
0.0
111
1.0
121
0.0
131
0.0
112
0.0
122
1.0
132
0.0
345
0
346
0
 79
     0
146
0.0
  0
VPORT
  5
97
100
AcDbSymbolTableRecord
100
AcDbViewportTableRecord
  2
L2
 70
     0
 10
0.5
 20
0.0
 11
1.0
 21
1.0
 12
0.0
 22
0.0
 13
0.0
 23
0.0
 14
1.0
 24
1.0
 15
0.0
 25
0.0
 16
1.0
 26
0.0
 36
0.0
 17
0.0
 27
0.0
 37
0.0
 40
56.455353
 41
0.688564
 42
50.0
 43
28.635421
 44
-28.635421
 50
0.0
 51
0.0
 71
    16
 72
   100
 73
     1
 74
     1
 75
     0
 76
     0
 77
     0
 78
     0
281
     0
 65
     0
110
0.0
120
0.0
130
0.0
111
1.0
121
0.0
131
0.0
112
0.0
122
1.0
132
0.0
345
0
346
0
 79
     0
146
0.0
  0
VPORT
  5
98
100
AcDbSymbolTableRecord
100
AcDbViewportTableRecord
  2
L3
 70
     0
 10
0.0
 20
0.5
 11
1.0
 21
1.0
 12
0.0
 22
0.0
 13
0.0
 23
0.0
 14
1.0
 24
1.0
 15
0.0
 25
0.0
 16
0.0
 26
0.0
 36
1.0
 17
0.0
 27
0.0
 37
0.0
 40
9.63029
 41
0.688564
 42
50.0
 43
28.933368
 44
-28.933368
 50
0.0
 51
0.0
 71
    16
 72
   100
 73
     1
 74
     1
 75
     0
 76
     0
 77
     0
 78
     0
281
     0
 65
     0
110
0.0
120
0.0
130
0.0
111
1.0
121
0.0
131
0.0
112
0.0
122
1.0
132
0.0
345
0
346
0
 79
     0
146
0.0
  0
VPORT
  5
99
100
AcDbSymbolTableRecord
100
AcDbViewportTableRecord
  2
L3
 70
     0
 10
0.0
 20
0.0
 11
1.0
 21
0.5
 12
0.0
 22
0.0
 13
0.0
 23
0.0
 14
1.0
 24
1.0
 15
0.0
 25
0.0
 16
0.0
 26
-1.0
 36
0.0
 17
0.0
 27
0.0
 37
0.0
 40
56.455353
 41
0.688564
 42
50.0
 43
28.964875
 44
-28.964875
 50
0.0
 51
0.0
 71
    16
 72
   100
 73
     1
 74
     1
 75
     0
 76
     0
 77
     0
 78
     0
281
     0
 65
     0
110
0.0
120
0.0
130
0.0
111
1.0
121
0.0
131
0.0
112
0.0
122
1.0
132
0.0
345
0
346
0
 79
     0
146
0.0
  0
VPORT
  5
9A
100
AcDbSymbolTableRecord
100
AcDbViewportTableRecord
  2
L4
 70
     0
 10
0.0
 20
0.5
 11
0.5
 21
1.0
 12
0.0
 22
0.0
 13
0.0
 23
0.0
 14
1.0
 24
1.0
 15
0.0
 25
0.0
 16
0.0
 26
0.0
 36
1.0
 17
0.0
 27
0.0
 37
0.0
 40
9.63029
 41
0.688564
 42
50.0
 43
28.933368
 44
-28.933368
 50
0.0
 51
0.0
 71
    16
 72
   100
 73
     1
 74
     1
 75
     0
 76
     0
 77
     0
 78
     0
281
     0
 65
     0
110
0.0
120
0.0
130
0.0
111
1.0
121
0.0
131
0.0
112
0.0
122
1.0
132
0.0
345
0
346
0
 79
     0
146
0.0
  0
VPORT
  5
9B
100
AcDbSymbolTableRecord
100
AcDbViewportTableRecord
  2
L4
 70
     0
 10
0.0
 20
0.0
 11
0.5
 21
0.5
 12
0.0
 22
0.0
 13
0.0
 23
0.0
 14
1.0
 24
1.0
 15
0.0
 25
0.0
 16
0.0
 26
-1.0
 36
0.0
 17
0.0
 27
0.0
 37
0.0
 40
56.455353
 41
0.688564
 42
50.0
 43
28.964875
 44
-28.964875
 50
0.0
 51
0.0
 71
    16
 72
   100
 73
     1
 74
     1
 75
     0
 76
     0
 77
     0
 78
     0
281
     0
 65
     0
110
0.0
120
0.0
130
0.0
111
1.0
121
0.0
131
0.0
112
0.0
122
1.0
132
0.0
345
0
346
0
 79
     0
146
0.0
  0
VPORT
  5
9C
100
AcDbSymbolTableRecord
100
AcDbViewportTableRecord
  2
L4
 70
     0
 10
0.5
 20
0.0
 11
1.0
 21
0.5
 12
0.0
 22
0.0
 13
0.0
 23
0.0
 14
1.0
 24
1.0
 15
0.0
 25
0.0
 16
1.0
 26
0.0
 36
0.0
 17
0.0
 27
0.0
 37
0.0
 40
56.455353
 41
0.688564
 42
50.0
 43
28.635421
 44
-28.635421
 50
0.0
 51
0.0
 71
    16
 72
   100
 73
     1
 74
     1
 75
     0
 76
     0
 77
     0
 78
     0
281
     0
 65
     0
110
0.0
120
0.0
130
0.0
111
1.0
121
0.0
131
0.0
112
0.0
122
1.0
132
0.0
345
0
346
0
 79
     0
146
0.0
  0
VPORT
  5
9D
100
AcDbSymbolTableRecord
100
AcDbViewportTableRecord
  2
L4
 70
     0
 10
0.5
 20
0.5
 11
1.0
 21
1.0
 12
0.0
 22
0.0
 13
0.0
 23
0.0
 14
1.0
 24
1.0
 15
0.0
 25
0.0
 16
0.57735
 26
-0.57735
 36
0.57735
 17
0.0
 27
0.0
 37
0.0
 40
55.328867
 41
0.688564
 42
50.0
 43
28.796888
 44
-28.796888
 50
0.0
 51
0.0
 71
    16
 72
   100
 73
     1
 74
     1
 75
     0
 76
     0
 77
     0
 78
     0
281
     0
 65
     0
110
0.0
120
0.0
130
0.0
111
1.0
121
0.0
131
0.0
112
0.0
122
1.0
132
0.0
345
0
346
0
 79
     0
146
0.0
  0
VPORT
  5
9E
100
AcDbSymbolTableRecord
100
AcDbViewportTableRecord
  2
L6
 70
     0
 10
0.0
 20
0.5
 11
0.333333
 21
1.0
 12
0.0
 22
0.0
 13
0.0
 23
0.0
 14
1.0
 24
1.0
 15
0.0
 25
0.0
 16
0.718873
 26
-0.585049
 36
0.375419
 17
0.0
 27
0.0
 37
0.0
 40
58.389407
 41
0.688564
 42
50.0
 43
30.22733
 44
-30.22733
 50
0.0
 51
0.0
 71
    16
 72
   100
 73
     1
 74
     1
 75
     0
 76
     0
 77
     0
 78
     0
281
     0
 65
     0
110
0.0
120
0.0
130
0.0
111
1.0
121
0.0
131
0.0
112
0.0
122
1.0
132
0.0
345
0
346
0
 79
     0
146
0.0
  0
VPORT
  5
9F
100
AcDbSymbolTableRecord
100
AcDbViewportTableRecord
  2
L6
 70
     0
 10
0.0
 20
0.0
 11
0.333333
 21
0.5
 12
0.0
 22
0.0
 13
0.0
 23
0.0
 14
1.0
 24
1.0
 15
0.0
 25
0.0
 16
-1.0
 26
0.0
 36
0.0
 17
0.0
 27
0.0
 37
0.0
 40
56.455353
 41
0.688564
 42
50.0
 43
28.635421
 44
-28.635421
 50
0.0
 51
0.0
 71
    16
 72
   100
 73
     1
 74
     1
 75
     0
 76
     0
 77
     0
 78
     0
281
     0
 65
     0
110
0.0
120
0.0
130
0.0
111
1.0
121
0.0
131
0.0
112
0.0
122
1.0
132
0.0
345
0
346
0
 79
     0
146
0.0
  0
VPORT
  5
A0
100
AcDbSymbolTableRecord
100
AcDbViewportTableRecord
  2
L6
 70
     0
 10
0.333333
 20
0.5
 11
0.666667
 21
1.0
 12
0.0
 22
0.0
 13
0.0
 23
0.0
 14
1.0
 24
1.0
 15
0.0
 25
0.0
 16
0.0
 26
0.0
 36
1.0
 17
0.0
 27
0.0
 37
0.0
 40
9.63029
 41
0.688564
 42
50.0
 43
28.933368
 44
-28.933368
 50
0.0
 51
0.0
 71
    16
 72
   100
 73
     1
 74
     1
 75
     0
 76
     0
 77
     0
 78
     0
281
     0
 65
     0
110
0.0
120
0.0
130
0.0
111
1.0
121
0.0
131
0.0
112
0.0
122
1.0
132
0.0
345
0
346
0
 79
     0
146
0.0
  0
VPORT
  5
A1
100
AcDbSymbolTableRecord
100
AcDbViewportTableRecord
  2
L6
 70
     0
 10
0.333333
 20
0.0
 11
0.666667
 21
0.5
 12
0.0
 22
0.0
 13
0.0
 23
0.0
 14
1.0
 24
1.0
 15
0.0
 25
0.0
 16
0.0
 26
-1.0
 36
0.0
 17
0.0
 27
0.0
 37
0.0
 40
56.455353
 41
0.688564
 42
50.0
 43
28.964875
 44
-28.964875
 50
0.0
 51
0.0
 71
    16
 72
   100
 73
     1
 74
     1
 75
     0
 76
     0
 77
     0
 78
     0
281
     0
 65
     0
110
0.0
120
0.0
130
0.0
111
1.0
121
0.0
131
0.0
112
0.0
122
1.0
132
0.0
345
0
346
0
 79
     0
146
0.0
  0
VPORT
  5
A2
100
AcDbSymbolTableRecord
100
AcDbViewportTableRecord
  2
L6
 70
     0
 10
0.666667
 20
0.5
 11
1.0
 21
1.0
 12
0.0
 22
0.0
 13
0.0
 23
0.0
 14
1.0
 24
1.0
 15
0.0
 25
0.0
 16
0.57735
 26
-0.57735
 36
0.57735
 17
0.0
 27
0.0
 37
0.0
 40
55.328867
 41
0.688564
 42
50.0
 43
28.796888
 44
-28.796888
 50
0.0
 51
0.0
 71
    16
 72
   100
 73
     1
 74
     1
 75
     0
 76
     0
 77
     0
 78
     0
281
     0
 65
     0
110
0.0
120
0.0
130
0.0
111
1.0
121
0.0
131
0.0
112
0.0
122
1.0
132
0.0
345
0
346
0
 79
     0
146
0.0
  0
VPORT
  5
A3
100
AcDbSymbolTableRecord
100
AcDbViewportTableRecord
  2
L6
 70
     0
 10
0.666667
 20
0.0
 11
1.0
 21
0.5
 12
0.0
 22
0.0
 13
0.0
 23
0.0
 14
1.0
 24
1.0
 15
0.0
 25
0.0
 16
1.0
 26
0.0
 36
0.0
 17
0.0
 27
0.0
 37
0.0
 40
56.455353
 41
0.688564
 42
50.0
 43
28.635421
 44
-28.635421
 50
0.0
 51
0.0
 71
    16
 72
   100
 73
     1
 74
     1
 75
     0
 76
     0
 77
     0
 78
     0
281
     0
 65
     0
110
0.0
120
0.0
130
0.0
111
1.0
121
0.0
131
0.0
112
0.0
122
1.0
132
0.0
345
0
346
0
 79
     0
146
0.0
  0
ENDTAB
  0
TABLE
  2
LTYPE
  5
4
100
AcDbSymbolTable
 70
     9
  0
LTYPE
  5
11
100
AcDbSymbolTableRecord
100
AcDbLinetypeTableRecord
  2
ByBlock
 70
    64
  3

 72
    65
 73
     0
 40
0.0
  0
LTYPE
  5
12
100
AcDbSymbolTableRecord
100
AcDbLinetypeTableRecord
  2
ByLayer
 70
    64
  3

 72
    65
 73
     0
 40
0.0
  0
LTYPE
  5
13
100
AcDbSymbolTableRecord
100
AcDbLinetypeTableRecord
  2
Continuous
 70
    64
  3
Solid line
 72
    65
 73
     0
 40
0.0
  0
LTYPE
  5
24
100
AcDbSymbolTableRecord
100
AcDbLinetypeTableRecord
  2
DASHED
 70
    64
  3
__ __ __ __ __ __ __ __ __
 72
    65
 73
     2
 40
0.75
 49
0.5
 74
     0
 49
-0.25
 74
     0
  0
LTYPE
  5
25
100
AcDbSymbolTableRecord
100
AcDbLinetypeTableRecord
  2
HIDDEN
 70
    64
  3
_ _ _ _ _ _ _ _ _ _ _ _ _ _ _
 72
    65
 73
     2
 40
0.5
 49
0.25
 74
     0
 49
-0.25
 74
     0
  0
LTYPE
  5
26
100
AcDbSymbolTableRecord
100
AcDbLinetypeTableRecord
  2
PHANTOM
 70
    64
  3
____ _ _ ____ _ _ _____ _ _ ____
 72
    65
 73
     6
 40
2.5
 49
1.25
 74
     0
 49
-0.25
 74
     0
 49
0.25
 74
     0
 49
-0.25
 74
     0
 49
0.25
 74
     0
 49
-0.25
 74
     0
  0
LTYPE
  5
27
100
AcDbSymbolTableRecord
100
AcDbLinetypeTableRecord
  2
CENTER
 70
    64
  3
____ _ ____ _ ____ _ ____
 72
    65
 73
     4
 40
2.0
 49
1.25
 74
     0
 49
-0.25
 74
     0
 49
0.25
 74
     0
 49
-0.25
 74
     0
  0
LTYPE
  5
28
100
AcDbSymbolTableRecord
100
AcDbLinetypeTableRecord
  2
DOT
 70
    64
  3
.........................
 72
    65
 73
     2
 40
0.25
 49
0.0
 74
     0
 49
-0.25
 74
     0
  0
LTYPE
  5
29
100
AcDbSymbolTableRecord
100
AcDbLinetypeTableRecord
  2
DASHDOT
 70
    64
  3
_._._._._._._._._._._._._._._._.
 72
    65
 73
     4
 40
1.0
 49
0.5
 74
     0
 49
-0.25
 74
     0
 49
0.0
 74
     0
 49
-0.25
 74
     0
  0
ENDTAB
  0
TABLE
  2
LAYER
  5
2
100
AcDbSymbolTable
 70
     2
  0
LAYER
  5
14
100
AcDbSymbolTableRecord
100
AcDbLayerTableRecord
  2
0
 70
     0
 62
     7
  6
Continuous
290
     1
370
    -3
390
1D
  0
LAYER
  5
2B
100
AcDbSymbolTableRecord
100
AcDbLayerTableRecord
  2
2
 70
     0
 62
     7
  6
Continuous
290
     1
370
    -3
390
1D
  0
ENDTAB
  0
TABLE
  2
STYLE
  5
3
100
AcDbSymbolTable
 70
     1
  0
STYLE
  5
17
100
AcDbSymbolTableRecord
100
AcDbTextStyleTableRecord
  2
Standard
 70
     0
 40
0.0
 41
1.0
 50
0.0
 71
     0
 42
0.0
  3
txt
  4

  0
ENDTAB
  0
TABLE
  2
VIEW
  5
5
100
AcDbSymbolTable
 70
    24
  0
VIEW
  5
7C
100
AcDbSymbolTableRecord
100
AcDbViewTableRecord
  2
TOP
 70
     0
 40
9.63029
 10
0.0
 20
0.0
 41
12.986497
 11
0.0
 21
0.0
 31
1.0
 12
0.0
 22
0.0
 32
0.0
 42
50.0
 43
28.933368
 44
-28.933368
 50
0.0
 71
    16
281
     0
 72
     0
110
0.0
120
0.0
130
0.0
111
1.0
121
0.0
131
0.0
112
0.0
122
1.0
132
0.0
  0
VIEW
  5
7D
100
AcDbSymbolTableRecord
100
AcDbViewTableRecord
  2
FRONT
 70
     0
 40
56.455353
 10
0.0
 20
0.0
 41
12.986497
 11
0.0
 21
-1.0
 31
0.0
 12
0.0
 22
0.0
 32
0.0
 42
50.0
 43
28.964875
 44
-28.964875
 50
0.0
 71
    16
281
     0
 72
     0
110
0.0
120
0.0
130
0.0
111
1.0
121
0.0
131
0.0
112
0.0
122
1.0
132
0.0
  0
VIEW
  5
7E
100
AcDbSymbolTableRecord
100
AcDbViewTableRecord
  2
RIGHT
 70
     0
 40
56.455353
 10
0.0
 20
0.0
 41
9.63029
 11
1.0
 21
0.0
 31
0.0
 12
0.0
 22
0.0
 32
0.0
 42
50.0
 43
28.635421
 44
-28.635421
 50
0.0
 71
    16
281
     0
 72
     0
110
0.0
120
0.0
130
0.0
111
1.0
121
0.0
131
0.0
112
0.0
122
1.0
132
0.0
  0
VIEW
  5
7F
100
AcDbSymbolTableRecord
100
AcDbViewTableRecord
  2
BACK
 70
     0
 40
56.455353
 10
0.0
 20
0.0
 41
12.986497
 11
0.0
 21
1.0
 31
0.0
 12
0.0
 22
0.0
 32
0.0
 42
50.0
 43
28.964875
 44
-28.964875
 50
0.0
 71
    16
281
     0
 72
     0
110
0.0
120
0.0
130
0.0
111
1.0
121
0.0
131
0.0
112
0.0
122
1.0
132
0.0
  0
VIEW
  5
80
100
AcDbSymbolTableRecord
100
AcDbViewTableRecord
  2
BOTTOM
 70
     0
 40
9.63029
 10
0.0
 20
0.0
 41
12.986497
 11
0.0
 21
0.0
 31
-1.0
 12
0.0
 22
0.0
 32
0.0
 42
50.0
 43
28.227676
 44
-28.227676
 50
180.0
 71
    16
281
     0
 72
     0
110
0.0
120
0.0
130
0.0
111
1.0
121
0.0
131
0.0
112
0.0
122
1.0
132
0.0
  0
VIEW
  5
81
100
AcDbSymbolTableRecord
100
AcDbViewTableRecord
  2
LEFT
 70
     0
 40
56.455353
 10
0.0
 20
0.0
 41
9.63029
 11
-1.0
 21
0.0
 31
0.0
 12
0.0
 22
0.0
 32
0.0
 42
50.0
 43
28.635421
 44
-28.635421
 50
0.0
 71
    16
281
     0
 72
     0
110
0.0
120
0.0
130
0.0
111
1.0
121
0.0
131
0.0
112
0.0
122
1.0
132
0.0
  0
VIEW
  5
82
100
AcDbSymbolTableRecord
100
AcDbViewTableRecord
  2
TFR-ISO
 70
     0
 40
55.328867
 10
0.0
 20
0.0
 41
15.992484
 11
0.57735
 21
-0.57735
 31
0.57735
 12
0.0
 22
0.0
 32
0.0
 42
50.0
 43
28.796888
 44
-28.796888
 50
0.0
 71
    16
281
     0
 72
     0
110
0.0
120
0.0
130
0.0
111
1.0
121
0.0
131
0.0
112
0.0
122
1.0
132
0.0
  0
VIEW
  5
83
100
AcDbSymbolTableRecord
100
AcDbViewTableRecord
  2
TFR-TRI
 70
     0
 40
58.389407
 10
0.0
 20
0.0
 41
15.666622
 11
0.718873
 21
-0.585049
 31
0.375419
 12
0.0
 22
0.0
 32
0.0
 42
50.0
 43
30.22733
 44
-30.22733
 50
0.0
 71
    16
281
     0
 72
     0
110
0.0
120
0.0
130
0.0
111
1.0
121
0.0
131
0.0
112
0.0
122
1.0
132
0.0
  0
VIEW
  5
84
100
AcDbSymbolTableRecord
100
AcDbViewTableRecord
  2
DIMETRIC_VIEW_B1
 70
     0
 40
58.688778
 10
0.0
 20
0.0
 41
14.833325
 11
-0.836516
 21
-0.482963
 31
0.258819
 12
0.0
 22
0.0
 32
0.0
 42
50.0
 43
30.267145
 44
-30.267145
 50
0.0
 71
    16
281
     0
 72
     0
110
0.0
120
0.0
130
0.0
111
1.0
121
0.0
131
0.0
112
0.0
122
1.0
132
0.0
  0
VIEW
  5
85
100
AcDbSymbolTableRecord
100
AcDbViewTableRecord
  2
DIMETRIC_VIEW_B2
 70
     0
 40
58.688778
 10
0.0
 20
0.0
 41
14.833325
 11
-0.836516
 21
0.482963
 31
0.258819
 12
0.0
 22
0.0
 32
0.0
 42
50.0
 43
30.267145
 44
-30.267145
 50
0.0
 71
    16
281
     0
 72
     0
110
0.0
120
0.0
130
0.0
111
1.0
121
0.0
131
0.0
112
0.0
122
1.0
132
0.0
  0
VIEW
  5
86
100
AcDbSymbolTableRecord
100
AcDbViewTableRecord
  2
DIMETRIC_VIEW_B5
 70
     0
 40
58.688778
 10
0.0
 20
0.0
 41
14.833325
 11
0.836516
 21
-0.482963
 31
0.258819
 12
0.0
 22
0.0
 32
0.0
 42
50.0
 43
30.267145
 44
-30.267145
 50
0.0
 71
    16
281
     0
 72
     0
110
0.0
120
0.0
130
0.0
111
1.0
121
0.0
131
0.0
112
0.0
122
1.0
132
0.0
  0
VIEW
  5
87
100
AcDbSymbolTableRecord
100
AcDbViewTableRecord
  2
DIMETRIC_VIEW_B6
 70
     0
 40
58.688778
 10
0.0
 20
0.0
 41
14.833325
 11
0.836516
 21
0.482963
 31
0.258819
 12
0.0
 22
0.0
 32
0.0
 42
50.0
 43
30.267145
 44
-30.267145
 50
0.0
 71
    16
281
     0
 72
     0
110
0.0
120
0.0
130
0.0
111
1.0
121
0.0
131
0.0
112
0.0
122
1.0
132
0.0
  0
VIEW
  5
88
100
AcDbSymbolTableRecord
100
AcDbViewTableRecord
  2
DIMETRIC_VIEW_C1
 70
     0
 40
58.37083
 10
0.0
 20
0.0
 41
16.061782
 11
-0.482963
 21
-0.836516
 31
0.258819
 12
0.0
 22
0.0
 32
0.0
 42
50.0
 43
30.270178
 44
-30.270178
 50
0.0
 71
    16
281
     0
 72
     0
110
0.0
120
0.0
130
0.0
111
1.0
121
0.0
131
0.0
112
0.0
122
1.0
132
0.0
  0
VIEW
  5
89
100
AcDbSymbolTableRecord
100
AcDbViewTableRecord
  2
DIMETRIC_VIEW_C2
 70
     0
 40
58.37083
 10
0.0
 20
0.0
 41
16.061782
 11
-0.482963
 21
0.836516
 31
0.258819
 12
0.0
 22
0.0
 32
0.0
 42
50.0
 43
30.270178
 44
-30.270178
 50
0.0
 71
    16
281
     0
 72
     0
110
0.0
120
0.0
130
0.0
111
1.0
121
0.0
131
0.0
112
0.0
122
1.0
132
0.0
  0
VIEW
  5
8A
100
AcDbSymbolTableRecord
100
AcDbViewTableRecord
  2
DIMETRIC_VIEW_C5
 70
     0
 40
58.37083
 10
0.0
 20
0.0
 41
16.061782
 11
0.482963
 21
-0.836516
 31
0.258819
 12
0.0
 22
0.0
 32
0.0
 42
50.0
 43
30.270178
 44
-30.270178
 50
0.0
 71
    16
281
     0
 72
     0
110
0.0
120
0.0
130
0.0
111
1.0
121
0.0
131
0.0
112
0.0
122
1.0
132
0.0
  0
VIEW
  5
8B
100
AcDbSymbolTableRecord
100
AcDbViewTableRecord
  2
DIMETRIC_VIEW_C6
 70
     0
 40
58.37083
 10
0.0
 20
0.0
 41
16.061782
 11
0.482963
 21
0.836516
 31
0.258819
 12
0.0
 22
0.0
 32
0.0
 42
50.0
 43
30.270178
 44
-30.270178
 50
0.0
 71
    16
281
     0
 72
     0
110
0.0
120
0.0
130
0.0
111
1.0
121
0.0
131
0.0
112
0.0
122
1.0
132
0.0
  0
VIEW
  5
8C
100
AcDbSymbolTableRecord
100
AcDbViewTableRecord
  2
DIMETRIC_VIEW_D1
 70
     0
 40
57.924642
 10
0.0
 20
0.0
 41
15.992484
 11
-0.640856
 21
-0.640856
 31
0.422618
 12
0.0
 22
0.0
 32
0.0
 42
50.0
 43
30.045897
 44
-30.045897
 50
0.0
 71
    16
281
     0
 72
     0
110
0.0
120
0.0
130
0.0
111
1.0
121
0.0
131
0.0
112
0.0
122
1.0
132
0.0
  0
VIEW
  5
8D
100
AcDbSymbolTableRecord
100
AcDbViewTableRecord
  2
DIMETRIC_VIEW_D2
 70
     0
 40
57.924642
 10
0.0
 20
0.0
 41
15.992484
 11
-0.640856
 21
0.640856
 31
0.422618
 12
0.0
 22
0.0
 32
0.0
 42
50.0
 43
30.045897
 44
-30.045897
 50
0.0
 71
    16
281
     0
 72
     0
110
0.0
120
0.0
130
0.0
111
1.0
121
0.0
131
0.0
112
0.0
122
1.0
132
0.0
  0
VIEW
  5
8E
100
AcDbSymbolTableRecord
100
AcDbViewTableRecord
  2
DIMETRIC_VIEW_D5
 70
     0
 40
57.924642
 10
0.0
 20
0.0
 41
15.992484
 11
0.640856
 21
-0.640856
 31
0.422618
 12
0.0
 22
0.0
 32
0.0
 42
50.0
 43
30.045897
 44
-30.045897
 50
0.0
 71
    16
281
     0
 72
     0
110
0.0
120
0.0
130
0.0
111
1.0
121
0.0
131
0.0
112
0.0
122
1.0
132
0.0
  0
VIEW
  5
8F
100
AcDbSymbolTableRecord
100
AcDbViewTableRecord
  2
DIMETRIC_VIEW_D6
 70
     0
 40
57.924642
 10
0.0
 20
0.0
 41
15.992484
 11
0.640856
 21
0.640856
 31
0.422618
 12
0.0
 22
0.0
 32
0.0
 42
50.0
 43
30.045897
 44
-30.045897
 50
0.0
 71
    16
281
     0
 72
     0
110
0.0
120
0.0
130
0.0
111
1.0
121
0.0
131
0.0
112
0.0
122
1.0
132
0.0
  0
VIEW
  5
90
100
AcDbSymbolTableRecord
100
AcDbViewTableRecord
  2
DIMETRIC_VIEW_D3
 70
     0
 40
57.924642
 10
0.0
 20
0.0
 41
15.992484
 11
-0.640856
 21
-0.640856
 31
-0.422618
 12
0.0
 22
0.0
 32
0.0
 42
50.0
 43
30.045897
 44
-30.045897
 50
0.0
 71
    16
281
     0
 72
     0
110
0.0
120
0.0
130
0.0
111
1.0
121
0.0
131
0.0
112
0.0
122
1.0
132
0.0
  0
VIEW
  5
91
100
AcDbSymbolTableRecord
100
AcDbViewTableRecord
  2
DIMETRIC_VIEW_D4
 70
     0
 40
57.924642
 10
0.0
 20
0.0
 41
15.992484
 11
-0.640856
 21
0.640856
 31
-0.422618
 12
0.0
 22
0.0
 32
0.0
 42
50.0
 43
30.045897
 44
-30.045897
 50
0.0
 71
    16
281
     0
 72
     0
110
0.0
120
0.0
130
0.0
111
1.0
121
0.0
131
0.0
112
0.0
122
1.0
132
0.0
  0
VIEW
  5
92
100
AcDbSymbolTableRecord
100
AcDbViewTableRecord
  2
DIMETRIC_VIEW_D7
 70
     0
 40
57.924642
 10
0.0
 20
0.0
 41
15.992484
 11
0.640856
 21
-0.640856
 31
-0.422618
 12
0.0
 22
0.0
 32
0.0
 42
50.0
 43
30.045897
 44
-30.045897
 50
0.0
 71
    16
281
     0
 72
     0
110
0.0
120
0.0
130
0.0
111
1.0
121
0.0
131
0.0
112
0.0
122
1.0
132
0.0
  0
VIEW
  5
93
100
AcDbSymbolTableRecord
100
AcDbViewTableRecord
  2
DIMETRIC_VIEW_D8
 70
     0
 40
57.924642
 10
0.0
 20
0.0
 41
15.992484
 11
0.640856
 21
0.640856
 31
-0.422618
 12
0.0
 22
0.0
 32
0.0
 42
50.0
 43
30.045897
 44
-30.045897
 50
0.0
 71
    16
281
     0
 72
     0
110
0.0
120
0.0
130
0.0
111
1.0
121
0.0
131
0.0
112
0.0
122
1.0
132
0.0
  0
ENDTAB
  0
TABLE
  2
UCS
  5
6
100
AcDbSymbolTable
 70
     0
  0
ENDTAB
  0
TABLE
  2
APPID
  5
8
100
AcDbSymbolTable
 70
     1
  0
APPID
  5
16
100
AcDbSymbolTableRecord
100
AcDbRegAppTableRecord
  2
ACAD
 70
     0
  0
ENDTAB
  0
TABLE
  2
DIMSTYLE
  5
9
100
AcDbSymbolTable
 70
     1
100
AcDbDimStyleTable
 71
     0
  0
DIMSTYLE
105
18
100
AcDbSymbolTableRecord
100
AcDbDimStyleTableRecord
  2
Standard
 70
     0
  3

  4

 40
1.0
 41
0.18
 42
0.0625
 43
0.38
 44
0.18
 45
0.0
 46
0.0
 47
0.0
 48
0.0
 71
     0
 72
     0
 73
     1
 74
     1
 75
     0
 76
     0
 77
     0
 78
     0
 79
     0
140
0.18
141
0.09
142
0.0
143
25.4
144
1.0
145
0.0
146
1.0
147
0.09
148
0.0
170
     0
171
     2
172
     0
173
     0
174
     0
175
     0
176
     0
177
     0
178
     0
179
     0
271
     4
272
     4
273
     2
274
     2
275
     0
276
     0
277
     2
278
    46
279
     0
280
     0
281
     0
282
     0
283
     1
284
     0
285
     0
286
     0
288
     0
289
     3
340
17
341
0
342
0
343
0
344
0
371
    -2
372
    -2
  0
ENDTAB
  0
TABLE
  2
BLOCK_RECORD
  5
1
100
AcDbSymbolTable
 70
     0
  0
BLOCK_RECORD
  5
A
100
AcDbSymbolTableRecord
100
AcDbBlockTableRecord
  2
*MODEL_SPACE
340
20
  0
BLOCK_RECORD
  5
B
100
AcDbSymbolTableRecord
100
AcDbBlockTableRecord
  2
*PAPER_SPACE
340
21
  0
ENDTAB
  0
ENDSEC
  0
SECTION
  2
BLOCKS
  0
BLOCK
  5
D
100
AcDbEntity
  8
0
390
0
100
AcDbBlockBegin
  2
*MODEL_SPACE
 70
     0
 10
0.0
 20
0.0
 30
0.0
  3
*MODEL_SPACE
  1

  0
ENDBLK
  5
E
100
AcDbEntity
  8
0
390
0
100
AcDbBlockEnd
  0
BLOCK
  5
F
100
AcDbEntity
 67
     1
  8
0
390
0
100
AcDbBlockBegin
  2
*PAPER_SPACE
 70
     0
 10
0.0
 20
0.0
 30
0.0
  3
*PAPER_SPACE
  1

  0
ENDBLK
  5
10
100
AcDbEntity
 67
     1
  8
0
390
0
100
AcDbBlockEnd
  0
ENDSEC
  0
SECTION
  2
ENTITIES
  0
LINE
  5
2A
100
AcDbEntity
  8
2
390
0
  6
Continuous
 62
   172
100
AcDbLine
 10
26.817804
 20
1.061575
 30
0.0
 11
26.739448
 21
2.342683
 31
0.0
  0
LINE
  5
2C
100
AcDbEntity
  8
2
390
0
  6
Continuous
 62
   172
100
AcDbLine
 10
14.025981
 20
20.081599
 30
0.0
 11
13.979189
 21
20.014604
 31
0.0
  0
LINE
  5
2D
100
AcDbEntity
  8
2
390
0
  6
Continuous
 62
   172
100
AcDbLine
 10
5.411585
 20
26.418265
 30
0.0
 11
3.25925
 21
15.911001
 31
0.0
  0
LINE
  5
2E
100
AcDbEntity
  8
2
390
0
  6
Continuous
 62
   172
100
AcDbLine
 10
16.348826
 20
0.69599
 30
0.0
 11
16.304351
 21
1.423161
 31
0.0
  0
LINE
  5
2F
100
AcDbEntity
  8
2
390
0
  6
Continuous
 62
   172
100
AcDbLine
 10
26.864215
 20
2.350314
 30
0.0
 11
26.739448
 21
2.342683
 31
0.0
  0
LINE
  5
30
100
AcDbEntity
  8
2
390
0
  6
Continuous
 62
   172
100
AcDbLine
 10
16.304351
 20
1.423161
 30
0.0
 11
16.179584
 21
1.41553
 31
0.0
  0
LINE
  5
31
100
AcDbEntity
  8
2
390
0
  6
Continuous
 62
   172
100
AcDbLine
 10
26.817804
 20
1.061575
 30
0.0
 11
16.348826
 21
0.69599
 31
0.0
  0
LINE
  5
32
100
AcDbEntity
  8
2
390
0
  6
Continuous
 62
   172
100
AcDbLine
 10
14.636465
 20
19.641096
 30
0.0
 11
14.589665
 21
19.574059
 31
0.0
  0
ARC
  5
33
100
AcDbEntity
  8
2
390
0
  6
Continuous
 62
   172
100
AcDbCircle
 10
-16.201986
 20
8.4546
 30
0.0
 40
0.635927
210
0.0
220
0.0
230
-1.0000000000000002
100
AcDbArc
 50
230.448021
 51
267.908618
  0
ARC
  5
34
100
AcDbEntity
  8
2
390
0
  6
Continuous
 62
   172
100
AcDbCircle
 10
-5.213596
 20
17.517527
 30
0.0
 40
0.630862
210
0.0
220
0.0
230
-1.0000000000000002
100
AcDbArc
 50
250.6022
 51
303.863893
  0
ARC
  5
35
100
AcDbEntity
  8
2
390
0
  6
Continuous
 62
   172
100
AcDbCircle
 10
-16.251737
 20
8.474244
 30
0.0
 40
0.593785
210
0.0
220
0.0
230
-1.0000000000000002
100
AcDbArc
 50
130.797208
 51
163.351247
  0
ARC
  5
36
100
AcDbEntity
  8
2
390
0
  6
Continuous
 62
   172
100
AcDbCircle
 10
-17.343624
 20
5.756902
 30
0.0
 40
0.630885
210
0.0
220
0.0
230
-1.0000000000000002
100
AcDbArc
 50
243.706763
 51
284.259055
  0
ARC
  5
37
100
AcDbEntity
  8
2
390
0
  6
Continuous
 62
   172
100
AcDbCircle
 10
-17.395484
 20
5.77361
 30
0.0
 40
0.593628
210
0.0
220
0.0
230
-1.0000000000000002
100
AcDbArc
 50
140.660488
 51
173.629173
  0
ARC
  5
38
100
AcDbEntity
  8
2
390
0
  6
Continuous
 62
   172
100
AcDbCircle
 10
-18.042062
 20
2.8819
 30
0.0
 40
0.661605
210
0.0
220
0.0
230
-1.0000000000000002
100
AcDbArc
 50
84.904435
 51
127.566034
  0
ARC
  5
39
100
AcDbEntity
  8
2
390
0
  6
Continuous
 62
   172
100
AcDbCircle
 10
-18.054291
 20
2.930015
 30
0.0
 40
0.634433
210
0.0
220
0.0
230
-1.0000000000000002
100
AcDbArc
 50
190.987257
 51
224.339133
  0
ARC
  5
3A
100
AcDbEntity
  8
2
390
0
  6
Continuous
 62
   172
100
AcDbCircle
 10
-18.039373
 20
2.915402
 30
0.0
 40
0.628119
210
0.0
220
0.0
230
-1.0000000000000002
100
AcDbArc
 50
-31.883623
 51
40.160498
  0
ARC
  5
3B
100
AcDbEntity
  8
2
390
0
  6
Continuous
 62
   172
100
AcDbCircle
 10
-16.22345
 20
8.441471
 30
0.0
 40
0.637078
210
0.0
220
0.0
230
-1.0000000000000002
100
AcDbArc
 50
97.86686
 51
130.797208
  0
ARC
  5
3C
100
AcDbEntity
  8
2
390
0
  6
Continuous
 62
   172
100
AcDbCircle
 10
-16.219679
 20
8.414174
 30
0.0
 40
0.664634
210
0.0
220
0.0
230
-1.0000000000000002
100
AcDbArc
 50
66.232144
 51
97.86686
  0
ARC
  5
3D
100
AcDbEntity
  8
2
390
0
  6
Continuous
 62
   172
100
AcDbCircle
 10
-16.206243
 20
8.444682
 30
0.0
 40
0.631298
210
0.0
220
0.0
230
-1.0000000000000002
100
AcDbArc
 50
27.329323
 51
66.232144
  0
ARC
  5
3E
100
AcDbEntity
  8
2
390
0
  6
Continuous
 62
   172
100
AcDbCircle
 10
-12.74083
 20
13.093463
 30
0.0
 40
0.663724
210
0.0
220
0.0
230
-1.0000000000000002
100
AcDbArc
 50
56.81808
 51
93.090504
  0
ARC
  5
3F
100
AcDbEntity
  8
2
390
0
  6
Continuous
 62
   172
100
AcDbCircle
 10
-16.209637
 20
8.450273
 30
0.0
 40
0.634078
210
0.0
220
0.0
230
-1.0000000000000002
100
AcDbArc
 50
308.290165
 51
347.99364
  0
ARC
  5
40
100
AcDbEntity
  8
2
390
0
  6
Continuous
 62
   172
100
AcDbCircle
 10
-16.202475
 20
8.441202
 30
0.0
 40
0.622521
210
0.0
220
0.0
230
-1.0000000000000002
100
AcDbArc
 50
267.908618
 51
308.290165
  0
ARC
  5
41
100
AcDbEntity
  8
2
390
0
  6
Continuous
 62
   172
100
AcDbCircle
 10
-5.226793
 20
17.540478
 30
0.0
 40
0.619607
210
0.0
220
0.0
230
-1.0000000000000002
100
AcDbArc
 50
64.339538
 51
97.756378
  0
ARC
  5
42
100
AcDbEntity
  8
2
390
0
  6
Continuous
 62
   172
100
AcDbCircle
 10
-18.062685
 20
2.908712
 30
0.0
 40
0.627779
210
0.0
220
0.0
230
-1.0000000000000002
100
AcDbArc
 50
127.566034
 51
158.391402
  0
ARC
  5
43
100
AcDbEntity
  8
2
390
0
  6
Continuous
 62
   172
100
AcDbCircle
 10
-7.969792
 20
16.43898
 30
0.0
 40
0.664464
210
0.0
220
0.0
230
-1.0000000000000002
100
AcDbArc
 50
38.378921
 51
74.921219
  0
ARC
  5
44
100
AcDbEntity
  8
2
390
0
  6
Continuous
 62
   172
100
AcDbCircle
 10
-5.178912
 20
17.523441
 30
0.0
 40
0.663515
210
0.0
220
0.0
230
-1.0000000000000002
100
AcDbArc
 50
165.128774
 51
196.936006
  0
ARC
  5
45
100
AcDbEntity
  8
2
390
0
  6
Continuous
 62
   172
100
AcDbCircle
 10
-18.030991
 20
2.952784
 30
0.0
 40
0.667011
210
0.0
220
0.0
230
-1.0000000000000002
100
AcDbArc
 50
224.339133
 51
256.146361
  0
ARC
  5
46
100
AcDbEntity
  8
2
390
0
  6
Continuous
 62
   172
100
AcDbCircle
 10
-17.32895
 20
5.786602
 30
0.0
 40
0.664013
210
0.0
220
0.0
230
-1.0000000000000002
100
AcDbArc
 50
205.02395
 51
243.706763
  0
ARC
  5
47
100
AcDbEntity
  8
2
390
0
  6
Continuous
 62
   172
100
AcDbCircle
 10
-16.199568
 20
8.448132
 30
0.0
 40
0.623784
210
0.0
220
0.0
230
-1.0000000000000002
100
AcDbArc
 50
-12.00636
 51
27.329323
  0
ARC
  5
48
100
AcDbEntity
  8
2
390
0
  6
Continuous
 62
   172
100
AcDbCircle
 10
0.0
 20
0.0
 30
0.0
 40
26.966831
210
-0.0
220
-0.0
230
1.0000000000000004
100
AcDbArc
 50
5.0
 51
78.423531
  0
ARC
  5
49
100
AcDbEntity
  8
2
390
0
  6
Continuous
 62
   172
100
AcDbCircle
 10
-12.725454
 20
13.116977
 30
0.0
 40
0.635629
210
0.0
220
0.0
230
-1.0000000000000002
100
AcDbArc
 50
19.05385
 51
56.81808
  0
ARC
  5
4A
100
AcDbEntity
  8
2
390
0
  6
Continuous
 62
   172
100
AcDbCircle
 10
-5.206146
 20
17.511312
 30
0.0
 40
0.621072
210
0.0
220
0.0
230
-1.0000000000000002
100
AcDbArc
 50
323.787124
 51
343.961531
  0
ARC
  5
4B
100
AcDbEntity
  8
2
390
0
  6
Continuous
 62
   172
100
AcDbCircle
 10
-7.963961
 20
16.503846
 30
0.0
 40
0.59711
210
0.0
220
0.0
230
-1.0000000000000002
100
AcDbArc
 50
106.72694
 51
139.608751
  0
ARC
  5
4C
100
AcDbEntity
  8
2
390
0
  6
Continuous
 62
   172
100
AcDbCircle
 10
-7.940935
 20
16.452831
 30
0.0
 40
0.622618
210
0.0
220
0.0
230
-1.0000000000000002
100
AcDbArc
 50
240.134183
 51
280.898175
  0
ARC
  5
4D
100
AcDbEntity
  8
2
390
0
  6
Continuous
 62
   172
100
AcDbCircle
 10
-14.649427
 20
10.923475
 30
0.0
 40
0.629226
210
0.0
220
0.0
230
-1.0000000000000002
100
AcDbArc
 50
14.922261
 51
59.697321
  0
ARC
  5
4E
100
AcDbEntity
  8
2
390
0
  6
Continuous
 62
   172
100
AcDbCircle
 10
-14.666502
 20
10.894259
 30
0.0
 40
0.663067
210
0.0
220
0.0
230
-1.0000000000000002
100
AcDbArc
 50
59.697321
 51
102.397693
  0
ARC
  5
4F
100
AcDbEntity
  8
2
390
0
  6
Continuous
 62
   172
100
AcDbCircle
 10
-14.675809
 20
10.936599
 30
0.0
 40
0.619716
210
0.0
220
0.0
230
-1.0000000000000002
100
AcDbArc
 50
102.397693
 51
132.955987
  0
ARC
  5
50
100
AcDbEntity
  8
2
390
0
  6
Continuous
 62
   172
100
AcDbCircle
 10
-14.648153
 20
10.923815
 30
0.0
 40
0.627908
210
0.0
220
0.0
230
-1.0000000000000002
100
AcDbArc
 50
-33.888561
 51
14.922261
  0
ARC
  5
51
100
AcDbEntity
  8
2
390
0
  6
Continuous
 62
   172
100
AcDbCircle
 10
-14.691466
 20
10.953415
 30
0.0
 40
0.596739
210
0.0
220
0.0
230
-1.0000000000000002
100
AcDbArc
 50
132.955987
 51
164.632863
  0
ARC
  5
52
100
AcDbEntity
  8
2
390
0
  6
Continuous
 62
   172
100
AcDbCircle
 10
-14.660155
 20
10.94481
 30
0.0
 40
0.629211
210
0.0
220
0.0
230
-1.0000000000000002
100
AcDbArc
 50
164.632863
 51
193.298697
  0
ARC
  5
53
100
AcDbEntity
  8
2
390
0
  6
Continuous
 62
   172
100
AcDbCircle
 10
-14.638826
 20
10.939315
 30
0.0
 40
0.646239
210
0.0
220
0.0
230
-1.0000000000000002
100
AcDbArc
 50
220.331788
 51
248.31775
  0
ARC
  5
54
100
AcDbEntity
  8
2
390
0
  6
Continuous
 62
   172
100
AcDbCircle
 10
-14.648697
 20
10.914488
 30
0.0
 40
0.619522
210
0.0
220
0.0
230
-1.0000000000000002
100
AcDbArc
 50
248.31775
 51
277.460235
  0
ARC
  5
55
100
AcDbEntity
  8
2
390
0
  6
Continuous
 62
   172
100
AcDbCircle
 10
-16.184236
 20
8.476092
 30
0.0
 40
0.663802
210
0.0
220
0.0
230
-1.0000000000000002
100
AcDbArc
 50
194.457066
 51
230.448021
  0
ARC
  5
56
100
AcDbEntity
  8
2
390
0
  6
Continuous
 62
   172
100
AcDbCircle
 10
-16.223803
 20
8.465891
 30
0.0
 40
0.622941
210
0.0
220
0.0
230
-1.0000000000000002
100
AcDbArc
 50
163.351247
 51
194.457066
  0
ARC
  5
57
100
AcDbEntity
  8
2
390
0
  6
Continuous
 62
   172
100
AcDbCircle
 10
-5.215429
 20
17.512321
 30
0.0
 40
0.625343
210
0.0
220
0.0
230
-1.0000000000000002
100
AcDbArc
 50
196.936006
 51
250.6022
  0
ARC
  5
58
100
AcDbEntity
  8
2
390
0
  6
Continuous
 62
   172
100
AcDbCircle
 10
-14.621628
 20
10.953916
 30
0.0
 40
0.6688
210
0.0
220
0.0
230
-1.0000000000000002
100
AcDbArc
 50
193.298697
 51
220.331788
  0
ARC
  5
59
100
AcDbEntity
  8
2
390
0
  6
Continuous
 62
   172
100
AcDbCircle
 10
-7.947413
 20
16.456704
 30
0.0
 40
0.635916
210
0.0
220
0.0
230
-1.0000000000000002
100
AcDbArc
 50
0.311968
 51
38.378921
  0
ARC
  5
5A
100
AcDbEntity
  8
2
390
0
  6
Continuous
 62
   172
100
AcDbCircle
 10
-5.246434
 20
17.499595
 30
0.0
 40
0.664963
210
0.0
220
0.0
230
-1.0000000000000002
100
AcDbArc
 50
25.121267
 51
64.339538
  0
ARC
  5
5B
100
AcDbEntity
  8
2
390
0
  6
Continuous
 62
   172
100
AcDbCircle
 10
-7.943172
 20
16.464448
 30
0.0
 40
0.634447
210
0.0
220
0.0
230
-1.0000000000000002
100
AcDbArc
 50
280.898175
 51
320.255678
  0
ARC
  5
5C
100
AcDbEntity
  8
2
390
0
  6
Continuous
 62
   172
100
AcDbCircle
 10
-7.933947
 20
16.456777
 30
0.0
 40
0.62245
210
0.0
220
0.0
230
-1.0000000000000002
100
AcDbArc
 50
-39.744322
 51
0.311968
  0
ARC
  5
5D
100
AcDbEntity
  8
2
390
0
  6
Continuous
 62
   172
100
AcDbCircle
 10
-12.720229
 20
13.122404
 30
0.0
 40
0.630685
210
0.0
220
0.0
230
-1.0000000000000002
100
AcDbArc
 50
270.168795
 51
324.455601
  0
ARC
  5
5E
100
AcDbEntity
  8
2
390
0
  6
Continuous
 62
   172
100
AcDbCircle
 10
-12.716811
 20
13.119962
 30
0.0
 40
0.626485
210
0.0
220
0.0
230
-1.0000000000000002
100
AcDbArc
 50
-35.544399
 51
19.05385
  0
ARC
  5
5F
100
AcDbEntity
  8
2
390
0
  6
Continuous
 62
   172
100
AcDbCircle
 10
-5.212595
 20
17.516035
 30
0.0
 40
0.629065
210
0.0
220
0.0
230
-1.0000000000000002
100
AcDbArc
 50
303.863893
 51
323.787124
  0
ARC
  5
60
100
AcDbEntity
  8
2
390
0
  6
Continuous
 62
   172
100
AcDbCircle
 10
-12.720195
 20
13.11108
 30
0.0
 40
0.619361
210
0.0
220
0.0
230
-1.0000000000000002
100
AcDbArc
 50
240.681355
 51
270.168795
  0
ARC
  5
61
100
AcDbEntity
  8
2
390
0
  6
Continuous
 62
   172
100
AcDbCircle
 10
-12.707831
 20
13.133096
 30
0.0
 40
0.644612
210
0.0
220
0.0
230
-1.0000000000000002
100
AcDbArc
 50
212.301452
 51
240.681355
  0
ARC
  5
62
100
AcDbEntity
  8
2
390
0
  6
Continuous
 62
   172
100
AcDbCircle
 10
-5.21563
 20
17.514039
 30
0.0
 40
0.630941
210
0.0
220
0.0
230
-1.0000000000000002
100
AcDbArc
 50
-16.038469
 51
25.121267
  0
ARC
  5
63
100
AcDbEntity
  8
2
390
0
  6
Continuous
 62
   172
100
AcDbCircle
 10
-5.198062
 20
17.528526
 30
0.0
 40
0.643702
210
0.0
220
0.0
230
-1.0000000000000002
100
AcDbArc
 50
132.39419
 51
165.128774
  0
ARC
  5
64
100
AcDbEntity
  8
2
390
0
  6
Continuous
 62
   172
100
AcDbCircle
 10
-5.229918
 20
17.56342
 30
0.0
 40
0.596453
210
0.0
220
0.0
230
-1.0000000000000002
100
AcDbArc
 50
97.756378
 51
132.39419
  0
ARC
  5
65
100
AcDbEntity
  8
2
390
0
  6
Continuous
 62
   172
100
AcDbCircle
 10
-7.933142
 20
16.477624
 30
0.0
 40
0.637575
210
0.0
220
0.0
230
-1.0000000000000002
100
AcDbArc
 50
139.608751
 51
170.421514
  0
ARC
  5
66
100
AcDbEntity
  8
2
390
0
  6
Continuous
 62
   172
100
AcDbCircle
 10
0.0
 20
0.0
 30
0.0
 40
16.241387
210
0.0
220
0.0
230
-1.0000000000000002
100
AcDbArc
 50
143.288234
 51
175.0
  0
ARC
  5
67
100
AcDbEntity
  8
2
390
0
  6
Continuous
 62
   172
100
AcDbCircle
 10
0.0
 20
0.0
 30
0.0
 40
24.413154
210
0.0
220
0.0
230
-1.0
100
AcDbArc
 50
124.932351
 51
126.699268
  0
ARC
  5
68
100
AcDbEntity
  8
2
390
0
  6
Continuous
 62
   172
100
AcDbCircle
 10
-12.743163
 20
13.136663
 30
0.0
 40
0.620461
210
0.0
220
0.0
230
-1.0000000000000002
100
AcDbArc
 50
93.090504
 51
123.959925
  0
ARC
  5
69
100
AcDbEntity
  8
2
390
0
  6
Continuous
 62
   172
100
AcDbCircle
 10
-12.756671
 20
13.15672
 30
0.0
 40
0.59628
210
0.0
220
0.0
230
-1.0000000000000002
100
AcDbArc
 50
123.959925
 51
156.018069
  0
ARC
  5
6A
100
AcDbEntity
  8
2
390
0
  6
Continuous
 62
   172
100
AcDbCircle
 10
-12.72479
 20
13.142538
 30
0.0
 40
0.631173
210
0.0
220
0.0
230
-1.0000000000000002
100
AcDbArc
 50
156.018069
 51
184.930717
  0
ARC
  5
6B
100
AcDbEntity
  8
2
390
0
  6
Continuous
 62
   172
100
AcDbCircle
 10
-12.687857
 20
13.145724
 30
0.0
 40
0.668243
210
0.0
220
0.0
230
-1.0000000000000002
100
AcDbArc
 50
184.930717
 51
212.301452
  0
ARC
  5
6C
100
AcDbEntity
  8
2
390
0
  6
Continuous
 62
   172
100
AcDbCircle
 10
0.0
 20
0.0
 30
0.0
 40
16.241387
210
0.0
220
0.0
230
-1.0000000000000002
100
AcDbArc
 50
101.576469
 51
143.288234
  0
ARC
  5
6D
100
AcDbEntity
  8
2
390
0
  6
Continuous
 62
   172
100
AcDbCircle
 10
-7.906557
 20
16.473138
 30
0.0
 40
0.664535
210
0.0
220
0.0
230
-1.0000000000000002
100
AcDbArc
 50
170.421514
 51
200.040224
  0
ARC
  5
6E
100
AcDbEntity
  8
2
390
0
  6
Continuous
 62
   172
100
AcDbCircle
 10
0.0
 20
0.0
 30
0.0
 40
24.494872
100
AcDbArc
 50
53.306672
 51
55.067649
  0
ARC
  5
6F
100
AcDbEntity
  8
2
390
0
  6
Continuous
 62
   172
100
AcDbCircle
 10
-18.096016
 20
2.921914
 30
0.0
 40
0.591929
210
0.0
220
0.0
230
-1.0000000000000002
100
AcDbArc
 50
158.391402
 51
190.987257
  0
ARC
  5
70
100
AcDbEntity
  8
2
390
0
  6
Continuous
 62
   172
100
AcDbCircle
 10
-17.363755
 20
5.747603
 30
0.0
 40
0.634653
210
0.0
220
0.0
230
-1.0000000000000002
100
AcDbArc
 50
108.525958
 51
140.660488
  0
ARC
  5
71
100
AcDbEntity
  8
2
390
0
  6
Continuous
 62
   172
100
AcDbCircle
 10
-17.353728
 20
5.71768
 30
0.0
 40
0.666212
210
0.0
220
0.0
230
-1.0000000000000002
100
AcDbArc
 50
77.840283
 51
108.525958
  0
ARC
  5
72
100
AcDbEntity
  8
2
390
0
  6
Continuous
 62
   172
100
AcDbCircle
 10
-17.338696
 20
5.756527
 30
0.0
 40
0.622805
210
0.0
220
0.0
230
-1.0000000000000002
100
AcDbArc
 50
0.517092
 51
39.477674
  0
ARC
  5
73
100
AcDbEntity
  8
2
390
0
  6
Continuous
 62
   172
100
AcDbCircle
 10
-17.350185
 20
5.756423
 30
0.0
 40
0.634294
210
0.0
220
0.0
230
-1.0000000000000002
100
AcDbArc
 50
-37.318925
 51
0.517092
  0
ARC
  5
74
100
AcDbEntity
  8
2
390
0
  6
Continuous
 62
   172
100
AcDbCircle
 10
-17.341897
 20
5.750106
 30
0.0
 40
0.623874
210
0.0
220
0.0
230
-1.0000000000000002
100
AcDbArc
 50
284.259055
 51
322.681075
  0
ARC
  5
75
100
AcDbEntity
  8
2
390
0
  6
Continuous
 62
   172
100
AcDbCircle
 10
-18.039051
 20
2.915674
 30
0.0
 40
0.627697
210
0.0
220
0.0
230
-1.0000000000000002
100
AcDbArc
 50
40.160498
 51
84.904435
  0
ARC
  5
76
100
AcDbEntity
  8
2
390
0
  6
Continuous
 62
   172
100
AcDbCircle
 10
-18.040099
 20
2.915853
 30
0.0
 40
0.628974
210
0.0
220
0.0
230
-1.0000000000000002
100
AcDbArc
 50
256.146361
 51
328.116377
  0
ARC
  5
77
100
AcDbEntity
  8
2
390
0
  6
Continuous
 62
   172
100
AcDbCircle
 10
-14.650088
 20
10.925115
 30
0.0
 40
0.63024
210
0.0
220
0.0
230
-1.0000000000000002
100
AcDbArc
 50
277.460235
 51
326.111439
  0
ARC
  5
78
100
AcDbEntity
  8
2
390
0
  6
Continuous
 62
   172
100
AcDbCircle
 10
-7.935293
 20
16.462656
 30
0.0
 40
0.633947
210
0.0
220
0.0
230
-1.0000000000000002
100
AcDbArc
 50
200.040224
 51
240.134183
  0
ARC
  5
79
100
AcDbEntity
  8
2
390
0
  6
Continuous
 62
   172
100
AcDbCircle
 10
-17.364252
 20
5.770123
 30
0.0
 40
0.625054
210
0.0
220
0.0
230
-1.0000000000000002
100
AcDbArc
 50
173.629173
 51
205.02395
  0
ARC
  5
7A
100
AcDbEntity
  8
2
390
0
  6
Continuous
 62
   172
100
AcDbCircle
 10
-7.957821
 20
16.483413
 30
0.0
 40
0.618446
210
0.0
220
0.0
230
-1.0000000000000002
100
AcDbArc
 50
74.921219
 51
106.72694
  0
ARC
  5
7B
100
AcDbEntity
  8
2
390
0
  6
Continuous
 62
   172
100
AcDbCircle
 10
-17.346795
 20
5.749856
 30
0.0
 40
0.633297
210
0.0
220
0.0
230
-1.0000000000000002
100
AcDbArc
 50
39.477674
 51
77.840283
  0
ENDSEC
  0
SECTION
  2
OBJECTS
  0
DICTIONARY
  5
19
100
AcDbDictionary
280
     0
281
     1
  3
ACAD_GROUP
350
1A
  3
ACAD_MLINESTYLE
350
1B
  3
ACAD_LAYOUT
350
1E
  3
ACAD_PLOTSETTINGS
350
22
  3
ACAD_PLOTSTYLENAME
350
1F
  3
ACAD_WIPEOUT_VARS
350
23
  0
DICTIONARY
  5
1A
102
{ACAD_REACTORS
330
19
102
}
100
AcDbDictionary
280
     0
281
     1
  0
DICTIONARY
  5
1B
102
{ACAD_REACTORS
330
19
102
}
100
AcDbDictionary
280
     0
281
     1
  3
Standard
350
1C
  0
MLINESTYLE
  5
1C
102
{ACAD_REACTORS
330
1B
102
}
100
AcDbMlineStyle
  2
Standard
 70
     0
  3

 62
     0
 51
90.0
 52
90.0
 71
     2
 49
0.5
 62
   256
  6
ByLayer
 49
-0.5
 62
   256
  6
ByLayer
  0
ACDBDICTIONARYWDFLT
  5
1F
102
{ACAD_REACTORS
330
19
102
}
100
AcDbDictionary
281
     1
  3
Normal
350
1D
100
AcDbDictionaryWithDefault
340
1D
  0
ACDBPLACEHOLDER
  5
1D
102
{ACAD_REACTORS
330
1F
102
}
  0
LAYOUT
  5
20
102
{ACAD_REACTORS
330
1E
102
}
100
AcDbPlotSettings
  1

  2

  4

  6

 40
0.0
 41
0.0
 42
0.0
 43
0.0
 44
0.0
 45
0.0
 46
0.0
 47
0.0
 48
0.0
 49
0.0
140
0.0
141
0.0
142
1.0
143
1.0
 70
  1024
 72
     0
 73
     0
 74
     0
  7

 75
     0
147
1.0
148
0.0
149
0.0
100
AcDbLayout
  1
Model
 70
     0
 71
     0
 10
0.0
 20
0.0
 11
0.0
 21
0.0
 12
0.0
 22
0.0
 32
0.0
 14
0.0
 24
0.0
 34
0.0
 15
0.0
 25
0.0
 35
0.0
146
0.0
 13
0.0
 23
0.0
 33
0.0
 16
0.0
 26
0.0
 36
0.0
 17
0.0
 27
0.0
 37
0.0
 76
     0
330
A
331
0
345
0
346
0
  0
LAYOUT
  5
21
102
{ACAD_REACTORS
330
1E
102
}
100
AcDbPlotSettings
  1

  2

  4

  6

 40
0.0
 41
0.0
 42
0.0
 43
0.0
 44
0.0
 45
0.0
 46
0.0
 47
0.0
 48
0.0
 49
0.0
140
0.0
141
0.0
142
1.0
143
1.0
 70
     0
 72
     0
 73
     0
 74
     0
  7

 75
     0
147
1.0
148
0.0
149
0.0
100
AcDbLayout
  1
Layout1
 70
     0
 71
     0
 10
0.0
 20
0.0
 11
0.0
 21
0.0
 12
0.0
 22
0.0
 32
0.0
 14
0.0
 24
0.0
 34
0.0
 15
0.0
 25
0.0
 35
0.0
146
0.0
 13
0.0
 23
0.0
 33
0.0
 16
0.0
 26
0.0
 36
0.0
 17
0.0
 27
0.0
 37
0.0
 76
     0
330
B
331
0
345
0
346
0
  0
DICTIONARY
  5
1E
102
{ACAD_REACTORS
330
19
102
}
100
AcDbDictionary
280
     0
281
     1
  3
Layout1
350
21
  3
Model
350
20
  0
DICTIONARY
  5
22
102
{ACAD_REACTORS
330
19
102
}
100
AcDbDictionary
280
     0
281
     1
  0
WIPEOUTVARIABLES
  5
23
100
AcDbWipeoutVariables
 70
     1
  0
ENDSEC
  0
EOF
